Song name
# A B C D E F G H I J K L M N O P Q R S T U V W X Y Z

Siouxsie And The Banshees - Candyman tab

Candyman, as played on http://www.youtube.com/watch?v=KeFyp8ZYfSY


Intro
                |short delay effect here
e|-------------(2 maybe)-|
B|--------------5--------|
G|--------------4--------|
D|--------------2--------|
A|-5-0-5-2-0-2-(2 maybe)-|
E|-------------(0 maybe)-|


Verse

e|---------------------------------------------------------------------------------|
b|---------------3--------------6----/--------------------8--------------11------\-|
G|---5---3---5--------5--3----3---3--/---10----8----10---------10-8----8----8----\-|
D|-5---5---5---5---5--------5-------5/10----10---10----10---10------10--------10-\-|
A|---------------------------------------------------------------------------------|
E|---------------------------------------------------------------------------------|


Chorus

e|-------8-------8-------8-------------8-------8-------8-------|
B|----10---10------10------10-------10---10------10------10----|
G|-12---------12------12------12-11---------11------11------11-|
D|-------------------------------------------------------------|
A|-------------------------------------------------------------|
E|-------------------------------------------------------------|


Chorus add-on

e|--8--8--8--8--8--8--8--8--8--8--8-|
B|-10-10-10-10-10-10-10-10-10-10-10-|
G|-12-12-11-11-12-12-11-11-12-12-11-|
D|--0--0--0--0--0--0--0--0--0--0--0-| (Probably this 0)
A|----------------------------------|
E|----------------------------------|


Outro

e|--------------------------------------------------------------------|
B|-----------------------------------------------------------3--------|
G|-----0---0-----------0---0-----------0---0-------------5-----5------|
D|---3---3---3---3---3---3---3---3---3---3---3---3-\---3---3--------3-|
A|-0-----------0---2-----------2---3-----------3---\-5------------5---|
E|--------------------------------------------------------------------|



Last verse

(A)
e|---------------------------------|
B|---------------------------------|
G|---------------0-----------3-----|
D|---3---1---3-------3-1---1---1---|
A|-3---3---3---3---3-----3-------3-|
E|---------------------------------|

(B)
e|---------------------------------|
B|---------------1-----------4-----|
G|---3---1---3-------3-1---1---1---|
D|---------------------------------|
A|-3---3---3---3---3-----3-------3-|
E|---------------------------------|


End

e|--3--------|
B|--6--------|
G|--5--------|
D|--3--------|
A|-(3 maybe)-|
E|-----------|


Song structure

Intro 3x
Verse 5x
Chorus 1x
Verse 3x
Chorus 1x
Chorus add-on 2x
Intro 2,5x
Outro 6x
Last verse A 7x
Last verse B 1x
Last verse A 1x
Last verse B 1x
Chorus add-on 4x
Outro 8x
End 1x

Tabbed by D.Guedes. Comments and corrections are welcome @ dguedes@gmail.com .
Tap to rate this tab
# A B C D E F G H I J K L M N O P Q R S T U V W X Y Z