Song name
# A B C D E F G H I J K L M N O P Q R S T U V W X Y Z

Sirenia - My Minds Eye tab

Artist: Sirenia
Song: My Mind's Eye
Album: Nine Destinies
Tuning: Standard (EADGBe)
Legend: ()- palm mute, **- let ring, X- mute strings, ||- repeat riff, {}- side notes

Bridge & Solo to be added once I figure them out!

I. Keyboard Intro

II. Chorus:

e---------------------------------------------------------------|
B---------------------------------------------------------------|
G---------------------4444444444444444--------------------------|
D---2222222222222222--4444444444444444--22222222---22---22---2--|
A---2222222222222222--2222222222222222--22222222---22---22---2--|
E---0000000000000000--------------------00000000-3-00-3-00-3-0--|

e---------------------------------------------------------------|
B---------------------------------------------------------------|
G---4-(44)-4-(44)-4-(4)-----------------------------------------|
D---4-(44)-4-(44)-4-(4)----5-(55)-5-(55)-5-(5)---*2*------------|
A---2-(22)-2-(22)-2-(2)----5-(55)-5-(55)-5-(5)---*2*------------|
E--------------------------3-(33)-3-(33)-3-(3)---*0*------------|

III. Verse:

  {clean tone}  |8 times|   |4 times|   |2 times|
e--*5*----*3*---------------------------------------------------|
B--*5*----*3*---------------------------------------------------|
G--*6*----*4*--------(44)--------(22)---------------------------|
D--*7*----*5*--------(44)--------(22)--------(55)----4X----444--|
A--*7*----*5*----(22)(22)----(00)(00)--------(55)----4X----444--|
E--*5*----*3*----------------------------(33)(33)----2X----222--|

IV. Chorus

V. Verse

VI. Chorus

VII. Bridge

VIII. Solo

IX. Chorus

X. Final Chorus:

e---------------------------------------------------------------|
B---------------------------------------------------------------|
G---------------------4444444444444444--------------------------|
D---2222222222222222--4444444444444444--22222222---22---22---2--|
A---2222222222222222--2222222222222222--22222222---22---22---2--|
E---0000000000000000--------------------00000000-3-00-3-00-3-0--|

e---------------------------------------------------------------|
B---------------------------------------------------------------|
G---4-(44)-4-(44)-4-(4)-----------------------------------------|
D---4-(44)-4-(44)-4-(4)----5-(55)-5-(55)-5-(5)---*2*----*4*-----|
A---2-(22)-2-(22)-2-(2)----5-(55)-5-(55)-5-(5)---*2*----*4*-----|
E--------------------------3-(33)-3-(33)-3-(3)---*0*----*2*-----|
Tap to rate this tab
 
# A B C D E F G H I J K L M N O P Q R S T U V W X Y Z