Song name
# A B C D E F G H I J K L M N O P Q R S T U V W X Y Z

Sirius - Fuck Up tab

Kick-ass laata som stakk av med seieren i Norske Talenter 2010!
Slik spiller du den paa gitar, veldig lett! Have fun! :)

Dm                                     Am


1--------1--------1--------1--------0--------0--------0--------0--------|
----3--------3--------3--------3--------1--------1--------1--------1----|
--2---2----2---2----2---2----2---2----2---2----2---2----2---2----2---2--|
------------------------------------------------------------------------|
------------------------------------------------------------------------|
------------------------------------------------------------------------|

B#                                    F

------------------------------------------------------------------------|
3--------3--------3--------3--------1--------1--------1--------1--------|
----3--------3--------3--------3--------2--------2--------2--------2----|
--3---3----3---3----3---3----3---3----3---3----3---3----3---3----3---3--|
------------------------------------------------------------------------|
------------------------------------------------------------------------|


Sirius Offical Fan Site: http://www.facebook.com/pages/Sirius/110177692327239?ref=search&v=wall
Tap to rate this tab
 
# A B C D E F G H I J K L M N O P Q R S T U V W X Y Z