Guitaretab - guitar tabs
Song name
# A B C D E F G H I J K L M N O P Q R S T U V W X Y Z

Sister Hazel - All For You tab

Sister Hazel All for you Solo Guitar Tab

Legend:-
~ = vibrato
h = hammer on
p = pull off
/ = slide up
\ = slide down
b = bend whole note

E|------------------------------------------------------------------6-8--8-|
B|--------------6-9-8-6-8-6----6--------------------5-6-8-9---------|
G|2/6-8-8-8-8-8----------------------------8-1-5-3-6-5-8--------------------|
D|--------------------------------------------------------------------------|
A|--------------------------------------------------------------------------|
E|--------------------------------------------------------------------------|
[ Tab from: http://www.guitaretab.com/s/sister-hazel/17357.html ]
            ~                ~   ~   ~   ~ \h p h p   *hp h p h-p-h-p-h-p
E|8-6-6------------6-8-9-11-13--13--13-13-9-7-9-7---7-6-7-6--------------|
B|------9-8-9-9-9--------------------------------------------9-8-9-8-6-5--|
G|-------------------------------------------------------------------------|
D|-------------------------------------------------------------------------|
A|-------------------------------------------------------------------------|
E|-------------------------------------------------------------------------|

  h-p-h-p-  ~  ~           h  p    h  p        ~
E|-------------6-----18b-17 18-17-15-17-15-13-13b--------------------------|
B|6-5-8-9-8-9--------------------------------------------------------------|
G|-------------------------------------------------------------------------|
D|-------------------------------------------------------------------------|
A|-------------------------------------------------------------------------|
E|-------------------------------------------------------------------------|


This is my first try at a guitar tab so feel free to email me with any complaints, 
death threats @ jase_the_joker@hotmail.com
Related for All For You tab