Song name
# A B C D E F G H I J K L M N O P Q R S T U V W X Y Z

Sisters Of Mercy - Lucretia My Reflection tab

* - See down text
/ - Slide
~ - Vibrato
^ - Pull up
x - Don't let the sound fly


01:28

|-----------------------------------------------------------------|
|-----------------------------------------------------------------|
|-7-7-7-7-7-7-7-7-7-7-7-7-7-7-7-7-5-5-5-5-5-5-5-5-7-7-7-7-7-7-7-7-|
|-7-7-7-7-7-7-7-7-7-7-7-7-7-7-7-7-5-5-5-5-5-5-5-5-7-7-7-7-7-7-7-7-|
|-0-0-0-0-0-0-0-0-0-0-0-0-0-0-0-0-3-3-3-3-3-3-3-3-5-5-5-5-5-5-5-5-|
|-----------------------------------------------------------------|

Or you can play like this, you you think it sounds better:

|-----------------------------------------------------------------|
|-----------------------------------------------------------------|
|-----------------------------------------------------------------|
|-7-7-7-7-7-7-7-7-7-7-7-7-7-7-7-7-5-5-5-5-5-5-5-5-7-7-7-7-7-7-7-7-|
|-0-0-0-0-0-0-0-0-0-0-0-0-0-0-0-0-3-3-3-3-3-3-3-3-5-5-5-5-5-5-5-5-|
|-----------------------------------------------------------------|

Some solos:

01:58

|-------------------------------------------------------|
|-------------------------------------------------------|
|-------------------------------------------------------|
|-2-2-2-2-2-2-2-2-2-2-2-2-2------10101010-9-7---5~~--x8-|
|-0-0-0-0-0-0-0-0-0-0-0-0-0-------8-8-8-8-7-5---3~~--x8-|
|---------------------------3/5/3-----------------------|

*I'm not sure if the |-5-| is the correct note.
                     |-3-|

This is NOT hard, you just have to practice.

07:40

|--------------------------------------|
|--------------------------------------|
|-636360------636360------3/5-5-3/5-7^-|
|--------------------------------------|
|--------------------------------------|
|--------------------------------------|

This song has lots of solos, it's impossible to know them all... (Gary Marx does. LOL)

Email me. luis_silva_dm@hotmail.com
Tap to rate this tab
# A B C D E F G H I J K L M N O P Q R S T U V W X Y Z