Song name
# A B C D E F G H I J K L M N O P Q R S T U V W X Y Z

Sisters Of Mercy - Afterhours tab

Tempo : 46 bpm
Tuning : Standard

Bass:

Main Line (Riff 1):

G|-------------------------------------------------|
D|-------------------------------------------------|
A|7777777777777777777777777777777777777777777777777|
E|0000000000000000000000000000000000000000000000000|

Riff 2:

G|----------------------------|
D|--------555555444-----------|
A|55555555---------77777777777|
E|----------------------------|


Guitar:

Riff 1:
e|------------------------------------------------|
B|------------------------------------------------|
G|-------0--------------0---0---------------------|
D|-----2--------------2-------4/5/4-2-------------|
A|---2--------------2------------------2----------|
E|-0--------------0-------------------------------|

e|------------------------------------------------|
B|------------------------------------------------|
G|-------0--------------0---0---------------------|
D|-----2--------------2-------4/5/4-2-------------|
A|---2--------------2-----------------------------|
E|-0--------------0-------------------------------|

Riff 2:

e|---------------3--3-3-3/2-2/0-0-----0---0-----0--|
B|3--3-3-1/3-3-3-3------2-------0--0--0-0---0-0---0|
G|2--------2-----2------2-------0-----0------------|
D|0--------0-----0------0-------2-----2------------|
A|------------------------------2-----2------------|
E|------------------------------0-----0------------|


INTRO :

Bass : Main Line

VERSE 1 :

Bass : Main Line

Lyrics :

one more night spent on your mirror 
black Maria, in your eyes 
this stuff so strange and lonely 
England fades away 
in your eyes 

two o'clock in the morning 
ninety-four degrees

BREAK 1 :

Bass : Main Line

Guitar : Riff 1

x2

BREAK 2 :

Bass : Riff 2

Guitar : Riff 2

x4

VERSE 2 :

Bass : Main Line

Lyrics :

through the stillness through the heat 
the cars go by on Fifth and 
breathing slow 
get up off the floor and angel 
put your clothes on 
it's time for us to go 

let's take a ride 

BREAK 1 :

Bass : Main Line

Guitar : Riff 1

x2

BREAK 2 :

Bass : Riff 2

Guitar : Riff 2

x4

…and then repeat Main Bass Line / BREAK 1 until fade.
Tap to rate this tab
 
# A B C D E F G H I J K L M N O P Q R S T U V W X Y Z