Song name
# A B C D E F G H I J K L M N O P Q R S T U V W X Y Z

Sitti - Tattooed On My Mind tab

Tattooed on my mind- Sitti Navarro
Intro tabbed by Igi “Igikorn” Manaloto
April 3, 2007

Kayo na bahala kung gusto niu itaas... basta para sa akin, okie na yan
For comments and suggestions email me at igikorn@gmail.com
o kung gusto mo look at the video file in youtube... just search for "tattooed on my mind intro"
and watch it...

Standard Tuning

e----------0h2----4----2----0-------0------------------------------------------|
b---2h4--------------------------4--------4-----0----2p0h2---------------------|
g------------------------------------------------------------------------------|
d------------------------------------------------------------------------------|
a------------------------------------------------------------------------------|
E------------------------------------------------------------------------------|

e---4----2----0-------0-------------------------------------------------------|
b------------------4--------4----0--------------------------------------------|
g-------------------------------------1-----1h2p1-----------------------------|
d----------------------------------------------------------4h6---6------------|
a-------------------------------------------------------------------------4---|
E-----------------------------------------------------------------------------|

e--------------------------------------4-5-7 -5--4--5-5------------------------|
b---0-0--2-2---4----5-5-5-5-5- -----------------------------5--7--4--5 ---0-0--|
g------------------------------------------------------------------------------|
d------------------------------------------------------------------------------|
a------------------------------------------------------------------------------|
E------------------------------------------------------------------------------|
Tap to rate this tab
 
# A B C D E F G H I J K L M N O P Q R S T U V W X Y Z