Song name
# A B C D E F G H I J K L M N O P Q R S T U V W X Y Z

Six Def - Im The King tab

I'M THE KING by SIX DEF

I heard this song on Suits S02E16 and thought it was badass. Pretty easy and fun to play 
song with a little fuzz

email: sevenfx7 at gmail

-john





RIFF A

E|--------------------------------------------------------|
B|--------------------------------------------------------|
G|--------------------------------------------------------|
D|-------4--4--------------------------4--4---------------|
A|--2h4------------2h4------------2h4------------2--------|
E|----------------------5--2------------------------5--2--|

RIFF B

E|--------------------------------------------|
B|--------------------------------------------|
G|--2h3-------------------------2h3-----------|
D|-------4--2--4--2--2-------2-------4--2--4--|
A|----------------------2h4-------------------|
E|--------------------------------------------|

RIFF C1


E|-2----2--5b--2------2-----2-----2--5b--2-----2------|
B|---5b------------------5b----5b----------------5b---|
G|----------------------------------------------------|
D|----------------------------------------------------|
A|----------------------------------------------------|
E|----------------------------------------------------|

RIFF C2

E|-2----2--7b--2------2-----2-----2--5b--2-----2------|
B|---5b------------------5b----5b----------------5b---|
G|----------------------------------------------------|
D|----------------------------------------------------|
A|----------------------------------------------------|
E|----------------------------------------------------|

Song structure:

RIFF A   x8
RIFF B   x4
RIFF B   x4 with Guitar2 playing RIFF C1 x2 followed by RIFF C2 x2


RIFF A   x8
RIFF B   x4
RIFF B   x4 with Guitar2 playing RIFF C1 x2 followed by RIFF C2 x2

RIFF A x8
Tap to rate this tab
# A B C D E F G H I J K L M N O P Q R S T U V W X Y Z