Song name
# A B C D E F G H I J K L M N O P Q R S T U V W X Y Z

Six Feet Under - Tnt tab

Intro
|---|-------------------|    |---------|
|---|-------------------|    |---------|
|---|-------------------|    |---------|
|-2-|---2--5-7--5-7/5---|    |--2-5-7--|
|-2-|---2--5-7--5-7/5---|    |--2-5-7—-|
|-0-|---0--3-5--3-5/3---|x11 |--0—3-5--|


Chorus
|---------|
|---------|
|---------|
|--7-5-2--|
|--7-5-2--|
|--5-3-0--|x2


|------------------------------|
|------------------------------|
|------------------------------|
|--7-5-2--2-2-2-2-2-2-2-2-2-2--|
|--7-5-2--2-2-2-2-2-2-2-2-2-2--|
|--5-3-0--0-0-0-0-0-0-0-0-0-0--|


|----------------------------|
|----------------------------|
|------------------------7b--|
|--7-5-2--2-2-5-2-2-7--------|
|--7-5-2--2-2-5-2-2-7--------|
|--5-3-0--0-0-3-0-0-5--------|


Verse
|-------------------|   |---------|
|-------------------|   |---------|
|-------------------|   |---------|
|---2--5-7--5-7/5---|   |--2-5-7--|
|---2--5-7--5-7/5---|   |--2-5-7—-|
|---0--3-5--3-5/3---|x9 |--0-3-5--|


Chorus
|---------|
|---------|
|---------|
|--7-5-2--|
|--7-5-2--|
|--5-3-0--|x2


|------------------------------|
|------------------------------|
|------------------------------|
|--7-5-2--2-2-2-2-2-2-2-2-2-2--|
|--7-5-2--2-2-2-2-2-2-2-2-2-2--|
|--5-3-0--0-0-0-0-0-0-0-0-0-0--|





|----------------------|
|----------------------|
|----------------------|
|--7-5-2--2-2-5-2-2-7--|
|--7-5-2--2-2-5-2-2-7--|
|--5-3-0--0-0-3-0-0-5--|


Solo: Sorry, for the moment I don’t have the solo and I don’t wanna stole it from 
another tab. Under the solo play the necessary part of the Intro.


Chorus
|---------|
|---------|
|---------|
|--7-5-2--|
|--7-5-2--|
|--5-3-0--|x6


|------------------------------|
|------------------------------|
|------------------------------|
|--7-5-2--2-2-2-2-2-2-2-2-2-2--|
|--7-5-2--2-2-2-2-2-2-2-2-2-2--|
|--5-3-0--0-0-0-0-0-0-0-0-0-0--|


|----------------------|
|----------------------|
|----------------------|
|--7-5-2--2-2-5-2-2-7--|
|--7-5-2--2-2-5-2-2-7--|
|--5-3-0--0-0-3-0-0-5--|


Outro
First Guitar
|---------------------------------------------|-------|
|---------------------------------------------|-------|
|---------------------------------------------|-------|
|--2---3---4---5---6---7---8---9---10—-11/19--|--7/5--|
|--2---3---4---5---6---7---8---9---10—-11/19--|--7/5--|
|--0---1---2---3---4---5---6---7---8---9/17---|--5/3--|

Second Guitar
|----------------------------------------------------------|-------|
|----------------------------------------------------------|-------|
|--7b—8b—9b—10b—11b—12b-—13b-—14b-—15b-—16b-—17b--18b—19b--|-------|
|----------------------------------------------------------|--7/5--|
|----------------------------------------------------------|--7/5--|
|----------------------------------------------------------|--5/3--|
Tap to rate this tab
 
# A B C D E F G H I J K L M N O P Q R S T U V W X Y Z