Song name
# A B C D E F G H I J K L M N O P Q R S T U V W X Y Z

Sixnationstate - So Long tab

Six Nation State - So Long

STANDARD TUNING
NO CAPO.

CHORDS
e|---------------------------------------------------|
B|---------------------------------------------------|
G|------------------9-9-9-9-9-9-9-9--6-6-6-6-6-6-6-6-|
D|-6-6-6-6-6-6-6-6--9-9-9-9-9-9-9-9--6-6-6-6-6-6-6-6-|
A|-6-6-6-6-6-6-6-6--7-7-7-7-7-7-7-7--4-4-4-4-4-4-4-4-|
E|-4-4-4-4-4-4-4-4-----------------------------------|

INTRO TAB

e|-4-4-12-12-11-9|-14-4-11-0|-0-0-0-2-0-------|
B|---------------|----------|-----------4-2---|
G|---------------|----------|---------------1-|
D|---------------|----------|-----------------|
A|---------------|----------|-----------------|
E|---------------|----------|-----------------|

Pretty much the same all the way through
Tap to rate this tab
 
# A B C D E F G H I J K L M N O P Q R S T U V W X Y Z