Song name
# A B C D E F G H I J K L M N O P Q R S T U V W X Y Z

Sixto Rodriguez - I Wonder tab

I WONDER
SIXTO RODRIGUEZ
COLD FACT

Drop D Tuning. Try thumbing the E (D) string, makes life easier.
tabbed by Rob Zhang. Enjoy.

E||----------------------------||
B||----------------------------||
G||*--------------------------*||
D||*--------------------------*||
A||---------0--2--4--0---------||
D||---2--4--------------4--2---||

repeat four times

|------------------------------|------------------------------|
|--2---------------------------|--2---------------------------|
|--2---------------------------|--1---------------------------|
|--2---------------------------|--2---------------------------|
|-----------0--2--4--0---------|-----------0--2--4--0---------|
|-----2--4--------------4--2---|-----2--4--------------4--2---|


|------------------------------|--0---------------------------|
|--3---------------------------|------------------------------|
|--2---------------------------|--1---------------------------|
|--4---------------------------|--2---------------------------|
|-----------0--2--4--0---------|-----------0--2--4--0---------|
|-----2--4--------------4--2---|-----2--4--------------4--2---|

play once

||---------------------------|-----------------------------|--------------------------|
||------2-----------2--------|-----2-----------------------|-----3-----------3--------|
||*-----2-----------2--------|-----1-----------------------|-----2-----------2--------|
||*-----2-----------2--------|-----2-----------------------|-----4-----------4--------|
||---0--------0--0-----------|--0-----------0--2--4--0-----|--------------------------|
||------x-----------x-----2--|-----x--2--4--------------4--|--0--x-----0--0--x-----0--|

|-----0-----------------------|---------------------------|-----------------------------|
|-----------------------------|------2-----------2--------|-----2-----------------------|
|-----1-----------------------|------2-----------2--------|-----1-----------------------|
|-----2-----------------------|------2-----------2--------|-----2-----------------------|
|--------------0--2--4--0-----|---0--------0--0-----------|--0-----------0--2--4--0-----|
|--2--x--2--4--------------4--|------x-----------x-----2--|-----x--2--4--------------4--|

|--------------------------|-----0-----------------------|---------------------------|
|-----3--------------------|-----------------------------|------2-----------2--------|
|-----2--------------------|-----1-----------------------|------2-----------2--------|
|-----4--------------------|-----2-----------------------|------2-----------2--------|
|--------------------------|--------------0--2--4--0-----|---0--------0--0-----------|
|--0--x-----0--0--0--0--0--|--2--x--2--4--------------4--|------x-----------x-----2--|


|-----------------------------|--------------------------|-----0-----------------------|
|-----2-----------------------|-----3-----------3--------|-----------------------------|
|-----1-----------------------|-----2-----------2--------|-----1-----------------------|
|-----2-----------------------|-----4-----------4--------|-----2-----------------------|
|--0-----------0--2--4--0-----|--------------------------|--------------0--2--4--0-----|
|-----x--2--4--------------4--|--0--x-----0--0--x-----0--|--2--x--2--4--------------4--|


|---------------------------|-----------------------------|--------------------------|
|------2-----------2--------|-----2-----------------------|-----3--------------------|
|------2-----------2--------|-----1-----------------------|-----2--------------------|
|------2-----------2--------|-----2-----------------------|-----4--------------------|
|---0--------0--0-----------|--0-----------0--2--4--0-----|--------------------------|
|------x-----------x-----2--|-----x--2--4--------------4--|--0--x-----0--0--0--0--0--|

|-----0-------------------------------||
|-------------------------------------||
|-----1------------------------------*||
|-----2------------------------------*||
|--------------0--2--4--0-------------||
|--2--x--2--4--------------4--2-4-2---||

repeat four times

||----------------------------|----------------------------|--------------------------|
||----------------------------|----------------------------|--------------------------|
||*---------------------------|----------------------------|--------------------------|
||*---------------------------|----------------------------|--------------------------|
||----0--------0--0-----------|--0----------0--2--4--0-----|--------------------------|
||-------------------------2--|-------2--4--------------4--|--0--------0--0--0--0--0--|

|----------------------------||-------------------------|
|----------------------------||-------------------------|
|---------------------------*||-------------------------|
|---------------------------*||-------------------------|
|-------------0--2--4--0-----||--0--------0--0--------0-|
|--2----2--4--------------4--||-------------------------|

repeat once and fade
Tap to rate this tab
# A B C D E F G H I J K L M N O P Q R S T U V W X Y Z