Song name
# A B C D E F G H I J K L M N O P Q R S T U V W X Y Z

Sjako - Same Love tab

http://www.planteijdt.nl/sjako/discografie.html

Unfortunately there are no lyrics availabe, so I've had to do some guessing on the words.
Frankly still guessing on some of its meaning.

Intro

  D/F#  G          D  D/F# G D D/F# G D
-------------------2----------------------|
--3-----3----------3----------------------|
--2-----0--------0-2----------------------|
--0-----0----- 0---0----------------------|
--0-----2-0 h2----------------------------|
--2-----3---------------------------------|

  C
----------------------|
--1--1-1-1-1----------|
--0--0-0-0-0----------|
--2-------------------|
--3--3-2-0--------0---|
-----------3-2-h3-----|

Verse chords and best guess lyrics

 Em7 D/#  G  Bm7 D  A       (3*)  Em7 D/#  G  Bm7 D  A
----------------------------------------------------------|
-3---3----3---3--3--2-------------3---3----3---3--3--2----|
-0---2----0---2--2--2-------------0---2----0---2--2--2----|
-2---0----0---4--4--2-------------2---0----0---4--4--2----|
-2---0----2---2--5--0 2-4-2-0-----2---0----2---2--5--0----|
-0---2----3---2-------------------0---2----3---2----------|

It's like a mind extension or a mirror to look back in time
It's like when every song is gonna go, the world will follow and run (?)
It's the kind of thing you seem to know, in the back of your ear (?)
But it turns to be a much greater show, the future is here

chorus

  D/F# G   D (3*) C               D/F# G D   C Em D/F# G A D
-----------2-------------------------------------------------2----|
--3----3---3------1-1-1-0--------------------1--0---------2--3----|
--2----0---2------0-0-0-0--------------------0--0--2---0--2--2----|
--0----0---0------2--------------------------2--2--0---0--2--0----|
--0----2----------3-2-0--------0-------------3--2--0---2--0-------|
--2----3----------------3-2 h3---------------0--2--2---3----------|

It's the same love, It's new game
What it's made of we can never name
We are free now, it's what we dreamed of
It's the same, the same love


Verse 2 chords as 1

 Em7 D/#  G  Bm7 D  A       (3*)  Em7 D/#  G  Bm7 D  A
-----------------------------------------------------------|
-3---3----3---3--3--2-------------3---3----3---3--3--2-----|
-0---2----0---2--2--2-------------0---2----0---2--2--2-----|
-2---0----0---4--4--2-------------2---0----0---4--4--2-----|
-2---0----2---2--5--0 2-4-2-0-----2---0----2---2--5--0-----|
-0---2----3---2-------------------0---2----3---2--------4--|

It's amazing how things change, Just like you thought they would
Your sky is diiferent and so is your goal, that's easily understood

 G F# Bm E7  G F# E A
--------------------------------------------|
-3-2---3--3--3--2-0-------------------------|
-0-3---4--1--0--3-1-------------------------|
-0-4---4--0--0--4-2-------------------------|
-2-4---2--2--2--4-2-------------------------|
-3-2---2--0--3--2-0-------------------------|

But to find some space for getting on down
Bribe the muse by the tail (???)
Cause nothing's bigger than this little gods frown (??)
when you don't mess up mess up the scale

chorus + bridge

  D/F# G   D (3*) C                    A Asus4/2  A7   C   D/F# G D   C Em D/F# G A D
-----------2-------------------------------------------------------------------------2---|
--3----3---3------1-1-1-0--------------2-3-0------2-3--1--------------1-0---------2--3---|
--2----0---2------0-0-0-0--------------2-2-2------0-0--0--------------0-0---2---0--2--2--|
--0----0---0------2--------------------2-2-2------2-2--2--------------2-2---0---0--2--0--|
--0----2----------3-2-0--------0-------0-0-0------0-0--3--------------3-2---0---2--0-----|
--2----3----------------3-2 h3------------------------------------------0---2---3--------|

It's the same love, It's new game
What it's made of we can never name
We are free now, it's what we dreamed of
It's the same, the same love


Have fun playing! Sjako rules
Tap to rate this tab
# A B C D E F G H I J K L M N O P Q R S T U V W X Y Z