Song name
# A B C D E F G H I J K L M N O P Q R S T U V W X Y Z

Skambankt - Dynasti tab

I found no other tab for this song on this site so I wanted to try to tab it as best as I could. 
My first tab so don't be to hard on me. Here you go:


 Intro:
|-----------|
|-----------|
|-----------|
|--6-6-66-6-|
|--6-6-66-6-|
|--4-4-44-4-| Play this for 16 times then play this 
   V V V^ ^  
|-----------|
|-----------|
|-----------|
|--6-6-4----|
|--6-6-4----|
|--4-4-2----| 
   V V V 

V = play down on the guitar
^ = play up
Tap to rate this tab
 
# A B C D E F G H I J K L M N O P Q R S T U V W X Y Z