Song name
# A B C D E F G H I J K L M N O P Q R S T U V W X Y Z

Skazi - Anarchy tab

	SKAZI - ANARCHY

	tuning: EADGBe

	* -> Palm mute
	( ) -> Harmonic

e|------------------------------------------------------------------------------|
B|------------------------------------------------------------------------------|
G|------------------5-------------------5-------------------5-------------------|
D|-555-555-555-555--5--555-555-555-555--5--555-555-555-555--5------66-------33--|
A|-333-333-333-333--3--333-333-333-333--3--333-333-333-333--3--66--66->-33--33--|
E|-------------------------------------------------------------44--44->-11--11--|
   *** *** *** ***     *** *** *** ***     *** *** *** ***     **       **

e|---------------------------------------------------------------------------------|
B|---------------------------------------------------------------------------------|
G|------------------5--------------------5-------------------5---------------------|
D|-555-555-555-555----5--555-555-555-555---5--555-555-555-555--5------66-------33--|
A|-333-333-333-333-------333-333-333-333------333-333-333-333-----66--66->-33--33--|
E|----------------------------------------------------------------44--44->-11--11--|
   *** *** *** ***     *** *** *** ***     *** *** *** ***     **       **


only 1 guitar
e|-----------------------------------------------------------------------|
B|-----------------------------------------------------------------------|
G|--------------5-----------------5-----------------5--------------------|
D|----(5)---(6)---5-----(5)---(6)---5-----(5)---(6)---5-----66-------33--|
A|-33-----3----------33-----3----------33-----3---------66--66->-33--33--|
E|------------------------------------------------------44--44->-11--11--|
   **   *        **   *     *          **     *         **       **   


or play in 2 guitars


Guitar 1 play 

e|---------------------------------------------------------------------------------|
B|---------------------------------------------------------------------------------|
G|------------------5--------------------5-------------------5---------------------|
D|-555-555-555-555----5--555-555-555-555---5--555-555-555-555--5------66-------33--|
A|-333-333-333-333-------333-333-333-333------333-333-333-333-----66--66->-33--33--|
E|----------------------------------------------------------------44--44->-11--11--|
   *** *** *** ***       *** *** *** ***      *** *** *** ***     **       **

Guitar 2 play

e|-------------------------------------------------------------|
B|-------------------------------------------------------------|
G|-------------------------------------------------------------|
D|----(5)---(6)-----(5)---(6)-----(5)---(6)--------------------|
A|-33-----3------33-----3------33-----3------66--(6)--33--(3)--|
E|-------------------------------------------44-------11-------|
   **     *      **     *      **     *      **       **


for corrections mail me: henrique.langa@gmail.com
Tap to rate this tab
 
# A B C D E F G H I J K L M N O P Q R S T U V W X Y Z