Song name
# A B C D E F G H I J K L M N O P Q R S T U V W X Y Z

Skeletonwitch - Baptized In Flames tab

-----------------------------------------------------------------------------
			    Baptized In Flames - Skeletonwitch
-----------------------------------------------------------------------------
Tabbed by: TheEvilAxeman

E Standard Tuning: (E,A,D,G,B,E)

(/) Slide Up  (\) Slide Down  (h) Hammer On  (p) Pull Off  (b) Bend (r) Release (v) Vibrato


This is my first tab, so don't be too critical on it.

Intro: (All Tremolo Picking)

E|----------------------------------------------------------------------------|
B|----------------------------------------------------------------------------|
G|----------------------------------------------------------------------------|
D|----------------------------------------------------------------------------|
A|---66666666666666666666610101010101010101010--------------------------------|
E|--------------------------------------------8888888888888888888888888888888-|

E|----------------------------------------------------------------------------|
B|----------------------------------------------------------------------------|
G|----------------------------------------------------------------------------|
D|-------------------888888888888888886666666---------------------------------|
A|1010101010101010010------------------------10101055555555555/66666666666666-|
E|----------------------------------------------------------------------------|

Play Twice


Riff 1:
E|---------------------------------------------------------------------------|
B|---------------------------------------------------------------------------|
G|---------------------------------------------------------------------------|
D|---------------------------------------------------------------------------|
A|66666666668888888810101010101010-666666666688888888101010101010106666666666
E|---------------------------------------------------------------------------

E|----------------------------------------------------------------------------|
B|----------------------------------------------------------------------------|
G|----------------------------------------------------------------------------|
D|----------------------------------------------------------------------------|
A|10101001088888888888-----------------------------6--------------------------|
E|--------------------88888888888888888888888-6h8p6-8h6-666666666666666666666-|

E|----------------------------------------------------------------------------|
B|----------------------------------------------------------------------------|
G|----------------------------------------------------------------------------|
D|----------------------------------------------------------------------------|
A|--------------88888888888888888888-5555555555555555555555555555555555555555-|
E|44444443333333--------------------------------------------------------------|

Again, play twice.

Fill:

E|----------------------------|
B|----------------------------|
G|----------------------------|
D|----5-------4---------------|
A|----7-------5---------------|
E|---------------------3--2---|


Riff 2:

E|-----------------------------|
B|-----------------------------|
G|-----------------------------|
D|-----------------------------|
A|---10----10---10--10-10--7h9-|
E|------0-0--0-0---0--0--------|

E|-----------------------|
B|-----------------------|
G|-----------------------|
D|-----------------------|
A|-9---9---9-9-9---------|
E|--0-0-0-0-0-0----------|

E|-----------------------|
B|-----------------------|
G|-----------------------|
D|-----------------------|
A|-7---7---7-7-7---------|
E|--0-0-0-0-0-0----------|

E|----------------------|
B|----------------------|
G|----------------------|
D|----------------------|
A|-10----10-------6---6-|
E|---0-0----0-0----0-0--|


That's all I could pick out. Have fun.
Tap to rate this tab
 
# A B C D E F G H I J K L M N O P Q R S T U V W X Y Z