Song name
# A B C D E F G H I J K L M N O P Q R S T U V W X Y Z

Skiantos - Mi Piaccion Le Sbarbine tab

intro

guitar 1
e|-----5-----------------------------------------5------------------------------------|
b|-------8----------------------------8-----5------8----------------------------------|
g|---------5-5-7-7/9---------------------------------5-5-7-7/9------------------------|
d|------------------------------------------------------------------------------------|
a|------------------------------------------------------------------------------------|
e|------------------------------------------------------------------------------------|
guitar 2
e|----------------------------------------------------------------------------------|
b|-----------------------8-----------8-----------------------------8-----------8----|
g|-9-----------------------9-----------9----9------------------------9-----------9--|
d|-9-------------------9-----9-----9-----9--9--------------------9-----9-----9-----9|
a|-7-----------------7-----------7----------7------------------7-----------7--------|
e|-----------------7-----------7-----------------------------7-----------7----------|

guitar 1
e|----------------------------------------------------------------------------------|
b|------------5-5-6-5------------------------------------------------7-10-9-7-------|
g|---------------------7-5-7/9-7--------------------------------9-10----------10----|
d|----------------------------------------------------------------------------------|
a|----------------------------------------------------------------------------------|
e|----------------------------------------------------------------------------------|
guitar 2
e|----------------------------------------------------------------------------------|
b|-------5-----------5---------------6-----------6----------------------------------|
g|---------5-----------5-----------7---7-------7---7---------7-----------7----------|
d|-----7-----7-----7-----7-------7-------7---7-------7-----9---9-------9---9--------|
a|---7-----------7-------------5-----------5-------------9-------9---9-------9------|
e|-5-----------5---------------------------------------7-----------7----------------|

guitar 1
e|-------------------------------------------------------------------------------------|
b|--------------------------------------------------------9-7-----------------7--------|
g|---------------------------------------------7-9-10----------10-9-----10---------10-9|
d|-------------------------------------------------------------------------------------|
a|-------------------------------------------------------------------------------------|
e|-------------------------------------------------------------------------------------|
guitar 2
e|-------------------------------------------------------------------------------------|
b|------------------------------------------------------------------8-----------8------|
g|---------10----------------10-------------5-----------5-------------9-----------9----|
d|------12----12----------12----12--------7---7-------7---7-------9-----9-----9-----9-9|
a|---12----------12----12----------12---7-------7---7-------7---7-----------7---------9|
e|10----------------10----------------5-----------5-----------7-----------7-----------7|

mi piaccion le sbarbine, mi piaccion le sbarbine, mi piaccion le sbarbine!

pre strofa/post ritornello
                  (E)    (G)    (A)    (B)    (E)    (G)    (A)    (B)
e|-----------------0------3------5------7------0------3------5------7------|
b|-----------------0------3------5------7------0------3------5------7------|
g|-----------------1------4------6------8------1------4------6------8------|
d|-----------------2------5------7------9------2------5------7------9------|
a|--0---2---0-2----2------5------7------9------2------5------7------9------|
e|3---3---3-----0--0---3--3---5--5---7--7---0--0---3--3---5--5---7--7------|

strofa

     (E)    (G)    (A)    (B)    (E)    (G)    (A)    (B)
e|----0------3------5------7------0------3------5------7------|
b|----0------3------5------7------0------3------5------7------|
g|----1------4------6------8------1------4------6------8------|
d|----2------5------7------9------2------5------7------9------|
a|----2------5------7------9------2------5------7------9------|
e|-0--0---3--3---5--5---7--7---0--0---3--3---5--5---7--7------|

ritornello: E G A B
Tap to rate this tab
 
# A B C D E F G H I J K L M N O P Q R S T U V W X Y Z