Song name
# A B C D E F G H I J K L M N O P Q R S T U V W X Y Z

Skid Row - Beat Yourself Blind tab

Band Name: Skid Row
Song Name: Beat yourself blind
Tabbed By: Terry Sims (Masterofdarknes)
Email: Floyd_Fan89@teenspot.com


Intro:

e |-------------------------------|--------------------------------|
B |-------------------------------|--------------------------------|
G |-------------------------------|--------------------------------|
D |------------------------5------|--------------------------------|
A |--5h7-7----5h7-7--5-6-7--------|--5h7-7----5h7-7-------5--------|
E |--------0------------------0---|--------0--------0-5-7-----0----|


e |-------------------------------|--------------------------------|
B |-------------------------------|--------------------------------|
G |-------------------------------|--------------------------------|
D |------------------------5------|--------------------------------|
A |--5h7-7----5h7-7--5-6-7--------|--5h7-7----5h7-7-------5--------|
E |--------0------------------0---|--------0--------0-5-7-----0----|

e |--------------------------------|
B |--------------------------------|
G |-----------------x\-------------|
D |-----------------x\----7\-------|
A |-----------------------7\-------|
E |-----------------------7\-------|

x= Pick slide
Don't strum the 7's -
just slide it down

e |-------------------------------|--------------------------------|
B |-------------------------------|--------------------------------|
G |--7/9-9-9---7/9-9--------------|--7/9-9-9---7/9-9---------7-----|
D |--7/9-9-9---7/9-9-------0--12--|--7/9-9-9---7/9-9---------7-----|
A |--5/7-7-7---5/7-7----------10--|--5/7-7-7---5/7-7---------5-----|
E |-------------------5--7--------|-------------------0-5-7--------|
	

e |-------------------------------|--------------------------------|
B |-------------------------------|--------------------------------|
G |--7/9-9-9---7/9-9--------------|--7/9-9-9---7/9-9---------7~----|
D |--7/9-9-9---7/9-9-------0--12--|--7/9-9-9---7/9-9---------7~----|
A |--5/7-7-7---5/7-7----------10--|--5/7-7-7---5/7-7---------5~----|
E |-------------------5--7--------|-------------------0-5-7--------|
	


e |-------------------------------|--------------------------------|
B |-------------------------------|--------------------------------|
G |-~(7)~-------------------------|--------------------------------|
D |-~(7)~-------------------------|--------------------------------|
A |-~(5)~-------------------------|--------------------------------|
E |-------------------------------|--------------------------------|


e |-------------------------------|--------------------------------|
B |-------------------------------|--------------------------------|
G |-------------------------------|--------------------------------|
D |-------------------------------|--------------------------------|
A |-2-2--2-5-2--2-5-2--2-5-2--5/7-|-2-2--2-5-2--2-5-2--2-5-2--5/7--|
E |-0-0--0-3-0--0-3-0--0-3-0--3/5-|-0-0--0-3-0--0-3-0--0-3-0--3/5--|

e |-------------------------------|--------------------------------|
B |-------------------------------|--------------------------------|
G |-------------------------------|--------------------------------|
D |-------------------------------|--------------------------------|
A |-2-2--2-5-2--2-5-2--2-5-2--5/7-|-2-2--2-5-2--2-5-2--2-5-2--5/7--|
E |-0-0--0-3-0--0-3-0--0-3-0--3/5-|-0-0--0-3-0--0-3-0--0-3-0--3/5--|
Tap to rate this tab
# A B C D E F G H I J K L M N O P Q R S T U V W X Y Z