Song name
# A B C D E F G H I J K L M N O P Q R S T U V W X Y Z

Skillet - Awake And Alive tab

No solo
Drop B tuning

INTRO

|------------------|
|------------------|
|------------------|
|-3----6-----------|
|-3----6-----------|
|-3----6-----------|

VERSE

|------------------|
|------------------|
|------------------|
|-4--5-9--8-3------|
|-4--5-9--8-3------|
|-4--5-9--8-3------|

CHORUS

|------------------|
|------------------|
|------------------|
|-5-6-8------------|
|-5-6-8------------|
|-5-6-8------------|
Tap to rate this tab
# A B C D E F G H I J K L M N O P Q R S T U V W X Y Z