Song name
# A B C D E F G H I J K L M N O P Q R S T U V W X Y Z

Skillet - Sometimes tab

Pre-Intro
E|----77777-|
B|----------|
D|5-0-------|
A|5-0-------|
D|5-0-------|

Intro
Guitar 1
|-------------------|
|-------------------|
|-------------------|
|-99-99-7-999-99-4-7|(x2)
|-99-99-7-999-99-4-7|
|-99-99-7-999-99-4-7|

Guitar 2(on Second time)
|----------------------|
|77--------77-----8----|
|--66-77-44--66-77-----|
|----------------------|
|----------------------|
|----------------------|

Verse
|-------------------|
|-------------------|
|-------------------|
|-99-99-7-999-99-4-7|(x3)
|-99-99-7-999-99-4-7|
|-99-99-7-999-99-4-7|

Pre-Chorus
|---------------------|
|---------------------|
|---------------------|
|-5555-7777-5555-7777-|
|-5555-7777-5555-7777-|
|-5555-7777-5555-7777-|

Chorus
|-------------------|
|-------------------|
|-------------------|
|-5555-2222-99-99-7-|(x2)
|-5555-2222-99-99-7-|
|-5555-2222-99-99-7-|

|------------------------------|
|------------------------------|
|------------------------------|
|-5555-2222-9999-7777-5555-2222|
|-5555-2222-9999-7777-5555-2222|
|-5555-2222-9999-7777-5555-2222|

Back To Intro
Verse
Chorus

Pre-Bridge
Guitar 1
|---|
|---|
|---|
|-9-|
|-9-|
|-9-|

Guitar 2
|------------------------------|
|------------------------------|
|--------------------9999-9s11-|
|-999-11-11-11-121212----------|(x2)
|------------------------------|
|------------------------------|

Solo
Guitar 1
|-------------------|
|-------------------|
|-------------------|
|-5555-2222-99999999|
|-5555-2222-99999999|
|-5555-2222-99999999|

|-------------------|
|-------------------|
|-------------------|
|-5555-2222-77777777|
|-5555-2222-77777777|
|-5555-2222-77777777|

Guitar 2: Idk the solo (higher octave of pre-bridge^)

Bridge
|--------------------|
|--------------------|
|--------------------|
|-5555-2222-9999-7777|
|-5555-2222-9999-7777|
|-5555-2222-9999-7777|

|--------------|
|--------------|
|--------------|
|-5-0-22222222-|
|-5-0-22222222-|
|-5-0-22222222-|

Verse 3
|-------------------|
|-------------------|
|-------------------|
|-99-99-7-999-99-4-7|
|-99-99-7-999-99-4-7|
|-99-99-7-999-99-4-7|

Chorus

Outro
|-------------------|
|-------------------|
|-------------------|
|-99-99-7-999-99-4-7|(x2)
|-99-99-7-999-99-4-7|
|-99-99-7-999-99-4-7|

|------------------|
|------------------|
|------------------|
|-99-99-7-9999-999-|
|-99-99-7-9999-999-|
|-99-99-7-9999-999-|
Tap to rate this tab
# A B C D E F G H I J K L M N O P Q R S T U V W X Y Z