Song name
# A B C D E F G H I J K L M N O P Q R S T U V W X Y Z

Skillet - Rise tab

-------------------------------------------------------------------------------
                             RISE - Skillet
-------------------------------------------------------------------------------
Tabbed by: MittenMatt7
E-mail: mitten_matt@hotmail.com

Tuning:Drop C

Intro:
D|---------------------------------------------------------------------|
A|---------------------------------------------------------------------|
F|---------------------------------------------------------------------|
C|--x-x---4-4-4---4-4---4-4-4-4---4-4---4-7-7-7---7-7---7-7-7-7---7-7--|
G|--x-x---4-4-4---4-4---4-4-4-4---4-4---4-7-7-7---7-7---7-7-7-7---7-7--|
C|--x-x---4-4-4---4-4---4-4-4-4---4-4---4-7-7-7---7-7---7-7-7-7---7-7--|

D|---------------------------------------------------------------------|
A|---------------------------------------------------------------------|
F|---------------------------------------------------------------------|
C|--7-0-0-0---0-0---0-0-0-0---0-0---0-9-9-9---9-9---9-7-9---9-9-7------|
G|--7-0-0-0---0-0---0-0-0-0---0-0---0-9-9-9---9-9---9-7-9---9-9-7------|
C|--7-0-0-0---0-0---0-0-0-0---0-0---0-9-9-9---9-9---9-7-9---9-9-7------|

Verse:  (x2)
D|---------------------------------------------------------------------|
A|---------------------------------------------------------------------|
F|---------------------------------------------------------------------|
C|--------4-4-4-4---------4-4-4-4---------7-7-7-7---------7-7-7-7------|
G|--------4-4-4-4---------4-4-4-4---------7-7-7-7---------7-7-7-7------|
C|--------4-4-4-4---------4-4-4-4---------7-7-7-7---------7-7-7-7------|
          * * * *         * * * *         * * * *         * * * *
D|---------------------------------------------------------------------|
A|---------------------------------------------------------------------|
F|---------------------------------------------------------------------|
C|--------0-0-0-0---------0-0-0-0---------9-9-9-9---------7h9---9-9-7--|
G|--------0-0-0-0---------0-0-0-0---------9-9-9-9---------7h9---9-9-7--|
C|--------0-0-0-0---------0-0-0-0---------9-9-9-9---------7h9---9-9-7--|
          * * * *         * * * *         * * * *
Pre-Chorus:
D|---------------------------------------------------------------------|
A|---------------------------------------------------------------------|
F|--7---7---7---7---7---7---7---7---9---9---9---9--10--10--10--10------|
C|--7---7---7---7---7---7---7---7---9---9---9---9--10--10--10--10------|
G|--5---5---5---5---5---5---5---5---7---7---7---7---8---8---8---8------|
C|---------------------------------------------------------------------|

Chorus:
D|----------------------------------------------------------|     |
A|----------------------------------------------------------|     |
F|-------------------------------------------4---4---6---6--|     |
C|--4---4---2b---4---4-------0---0---0---0---4---4---6---6--|  x3 |
G|--4---4--------4---4---2---0---0---0---0---2---2---4---4--|     |
C|--4---4--------4---4-------0---0---0---0------------------|     |

D|---------------------------------------------------------------------|
A|---------------------------------------------------------------------|
F|--7---7---7---7---7---7---7---7---9---9---9---9--10--10--10--10------|
C|--7---7---7---7---7---7---7---7---9---9---9---9--10--10--10--10------|
G|--5---5---5---5---5---5---5---5---7---7---7---7---8---8---8---8------|
C|---------------------------------------------------------------------|

Post-Chorus:
D|-------------------------|
A|-------------------------|
F|-------------------------|
C|--4---4---x-x-x---4---4--|
G|--4---4---x-x-x---4---4--|
C|--4---4---x-x-x---4---4--|

D|---------------------------------------------------------------------|
A|---------------------------------------------------------------------|
F|---------------------------------------------------------------------|
C|--------4-4-4---4-4---4-4-4-4---4-4---4-7-7-7---7-7---7-7-7-7---7-7--|
G|--------4-4-4---4-4---4-4-4-4---4-4---4-7-7-7---7-7---7-7-7-7---7-7--|
C|--------4-4-4---4-4---4-4-4-4---4-4---4-7-7-7---7-7---7-7-7-7---7-7--|

D|---------------------------------------------------------------------|
A|---------------------------------------------------------------------|
F|---------------------------------------------------------------------|
C|--7-0-0-0---0-0---0-0-0-0---0-0---0-9-9-9---9-9---9-7-9---9-9-7------|
G|--7-0-0-0---0-0---0-0-0-0---0-0---0-9-9-9---9-9---9-7-9---9-9-7------|
C|--7-0-0-0---0-0---0-0-0-0---0-0---0-9-9-9---9-9---9-7-9---9-9-7------|

Interlude:
D|---------------------------|
A|---------------------------|
F|---------------------------|
C|--4---4-4---------4---4-4--|
G|--4---4-4---------4---4-4--|
C|--4---4-4---------4---4-4--|

Verse 2:
D|---------------------------------------------------------------------|
A|---------------------------------------------------------------------|
F|---------------------------------------------------------------------|
C|--------4-4-4-4---------4-4-4-4---------7-7-7-7---------7-7-7-7------|
G|--------4-4-4-4---------4-4-4-4---------7-7-7-7---------7-7-7-7------|
C|--------4-4-4-4---------4-4-4-4---------7-7-7-7---------7-7-7-7------|
          * * * *         * * * *         * * * *         * * * *
D|---------------------------------------------------------------------|
A|---------------------------------------------------------------------|
F|---------------------------------------------------------------------|
C|--------0-0-0-0---------0-0-0-0---------9-9--------9-9--------9-7----|
G|--------0-0-0-0---------0-0-0-0---------9-9--------9-9--------9-7----|
C|--------0-0-0-0---------0-0-0-0---------9-9--------9-9--------9-7----|
          * * * *         * * * *         
D|---------------------------------------------------------------------|
A|---------------------------------------------------------------------|
F|---------------------------------------------------------------------|
C|--------4-4-4-4---------4-4-4-4---------7-7-7-7---------7-7-7-7------|
G|--------4-4-4-4---------4-4-4-4---------7-7-7-7---------7-7-7-7------|
C|--------4-4-4-4---------4-4-4-4---------7-7-7-7---------7-7-7-7------|
          * * * *         * * * *         * * * *         * * * *
D|---------------------------------------------------------------------|
A|---------------------------------------------------------------------|
F|---------------------------------------------------------------------|
C|--------0-0-0-0---------0-0-0-0---------9-9-9-9---------7h9---9-9-7--|
G|--------0-0-0-0---------0-0-0-0---------9-9-9-9---------7h9---9-9-7--|
C|--------0-0-0-0---------0-0-0-0---------9-9-9-9---------7h9---9-9-7--|
          * * * *         * * * *         * * * *
Pre-Chorus
Chorus
Post-Chorus

Bridge:
D|---------------------------------------------------------------------|
A|---------------------------------------------------------------------|
F|--7---7---7---7---7---7---7---6---4---4---4---4---4---4---4---4------|
C|--7---7---7---7---7---7---7---6---4---4---4---4---4---4---4---4------|
G|--5---5---5---5---5---5---5---4---2---2---2---2---2---2---2---2------|
C|---------------------------------------------------------------------|

D|---------------------------------------------------------------------|
A|---------------------------------------------------------------------|
F|---------------------------------------------------------------------|
C|--4---4---4---4---4---4---4---4---7---7---7---7---7---7---7---7------|
G|--4---4---4---4---4---4---4---4---7---7---7---7---7---7---7---7------|
C|--4---4---4---4---4---4---4---4---7---7---7---7---7---7---7---7------|

D|---------------------------------------------------------------------|
A|---------------------------------------------------------------------|
F|--7---7---7---7---7---7---7---6---4---4---4---4---4---4---4---4------|
C|--7---7---7---7---7---7---7---6---4---4---4---4---4---4---4---4---4--|
G|--5---5---5---5---5---5---5---4---2---2---2---2---2---2---2---2---4--|
C|------------------------------------------------------------------4--|

D|---------------------------------------------------------------------|
A|---------------------------------------------------------------------|
F|-----4-------6-------7-------9---------------------------------------|
C|-----4-------6-------7-------9--------x-x-x-x------------------------|
G|-----2-------4-------5-------7--------x-x-x-x------------------------|
C|--------------------------------------x-x-x-x------------------------|

Pre-Chorus
Intro

Outro:
D|---------------|
A|---------------|
F|---------------|
C|---------------|
G|---------------|
C|--7-9-7-4-5-7--|

************************************

| /   slide up
| \   slide down
| h   hammer-on
| p   pull-off
| ~   vibrato
| +   harmonic
| x   Mute note
| b   Bend
| pb  Pre-bend
| br  Bend release
| pbr Pre-bend release
| brb Bend release bend

************************************
Tap to rate this tab
# A B C D E F G H I J K L M N O P Q R S T U V W X Y Z