Song name
# A B C D E F G H I J K L M N O P Q R S T U V W X Y Z

Skillet - Rise tab

Rise – Skillet

Tuning: Drop D
Level: Easy/Medium
Tabbed by: notgonnadie

This tab sounds pretty good… I think it is 90% correct. If you have any questions
or comments, please comment. Enjoy!

Intro

E----------------------------|
B----------------------------|
G----------------------------|
D-2-2-2-2-2-2-5-5-5-5-5-5----|
A-2-2-2-2-2-2-5-5-5-5-5-5----|
D-2-2-2-2-2-2-5-5-5-5-5-5----|

E-----------------------------------|
B-----------------------------------|
G-----------------------------------|
D-10-10-10-10-10-10-7-7-7-7-7-7-----|
A-10-10-10-10-10-10-7-7-7-7-7-7-----|
D-10-10-10-10-10-10-7-7-7-7-7-7-----|

Verse

E-------------------------|
B-------------------------|
G-------------------------|
D-2-2-2-2-2-2-5-5-5-5-5-5-|
A-2-2-2-2-2-2-5-5-5-5-5-5-|
D-2-2-2-2-2-2-5-5-5-5-5-5-|

E-------------------------------|
B-------------------------------|
G-------------------------------|
D-10-10-10-10-10-10-7-7-7-7-7-7-|
A-10-10-10-10-10-10-7-7-7-7-7-7-|
D-10-10-10-10-10-10-7-7-7-7-7-7-|

E-------------------------|
B-------------------------|
G-------------------------|
D-2-2-2-2-2-2-5-5-5-5-5-5-|
A-2-2-2-2-2-2-5-5-5-5-5-5-|
D-2-2-2-2-2-2-5-5-5-5-5-5-|

E-------------------------------|
B-------------------------------|
G-------------------------------|
D-10-10-10-10-10-10-7-7-7-7-7-7-|
A-10-10-10-10-10-10-7-7-7-7-7-7-|
D-10-10-10-10-10-10-7-7-7-7-7-7-|

Pre-Chorus

E-------------------------------------|
B-------------------------------------|
G-------------------------------------|
D-10-10-10-10-10-10-10-10-12-12-12-12-|
A-10-10-10-10-10-10-10-10-12-12-12-12-|
D-10-10-10-10-10-10-10-10-12-12-12-12-|

E-------|
B-------|
G-------|
D-9-9-9-|
A-9-9-9-|
D-9-9-9-| (wait a few seconds before chorus)

Chorus

E---------------------------------|
B---------------------------------|
G---------------------------------|
D-2-2-5-2-2-5-10-10-10-10-7-7—7-7-|
A-2-2-5-2-2-5-10-10-10-10-7-7—7-7-|
D-2-2-5-2-2-5-10-10-10-10-7-7—7-7-|


E---------------------------------|
B---------------------------------|
G---------------------------------|
D-2-2-5-2-2-5-10-10-10-10-7-7—7-7-|
A-2-2-5-2-2-5-10-10-10-10-7-7—7-7-|
D-2-2-5-2-2-5-10-10-10-10-7-7—7-7-|

E---------------------------------|
B---------------------------------|
G---------------------------------|
D-2-2-5-2-2-5-10-10-10-10-7-7—7-7-|
A-2-2-5-2-2-5-10-10-10-10-7-7—7-7-|
D-2-2-5-2-2-5-10-10-10-10-7-7—7-7-|

E-------------------------------------|
B-------------------------------------|
G-------------------------------------|
D-10-10-10-10-10-10-10-10-12-12-12-12-|
A-10-10-10-10-10-10-10-10-12-12-12-12-|
D-10-10-10-10-10-10-10-10-12-12-12-12-|

E-----------|
B-----------|
G-----------|
D-9-9-9-9---|
A-9-9-9-9---|
D-9-9-9-9---|


E--------------------------------|
B--------------------------------|
G--------------------------------|
D--------------------------------|
A--------------------------------|
D-2-2-2-2-2-2-2-2-2-2-2-2-2-2-2-2|

E-----------------------------------------|
B-----------------------------------------|
G-----------------------------------------|
D-----------------------------------------|
A-----------------------------------------|
D-5-5-5-5-5-5-5-5-10-10-10-10-10-10-10-10-|

E-----------------|
B-----------------|
G-----------------|
D-----------------|
A-----------------|
D-7-7-7-7-7-7-7-7-|

E-----------|
B-----------|
G-----------|
D-----------|
A-----------|
D-2-2--2-2--|

Verse

E-------------------------|
B-------------------------|
G-------------------------|
D-2-2-2-2-2-2-5-5-5-5-5-5-|
A-2-2-2-2-2-2-5-5-5-5-5-5-|
D-2-2-2-2-2-2-5-5-5-5-5-5-|

E-------------------------------|
B-------------------------------|
G-------------------------------|
D-10-10-10-10-10-10-7-7-7-7-7-7-|
A-10-10-10-10-10-10-7-7-7-7-7-7-|
D-10-10-10-10-10-10-7-7-7-7-7-7-|

E-------------------------|
B-------------------------|
G-------------------------|
D-2-2-2-2-2-2-5-5-5-5-5-5-|
A-2-2-2-2-2-2-5-5-5-5-5-5-|
D-2-2-2-2-2-2-5-5-5-5-5-5-|

E-------------------------------|
B-------------------------------|
G-------------------------------|
D-10-10-10-10-10-10-7-7-7-7-7-7-|
A-10-10-10-10-10-10-7-7-7-7-7-7-|
D-10-10-10-10-10-10-7-7-7-7-7-7-|

Pre-Chorus

E-------------------------------------|
B-------------------------------------|
G-------------------------------------|
D-10-10-10-10-10-10-10-10-12-12-12-12-|
A-10-10-10-10-10-10-10-10-12-12-12-12-|
D-10-10-10-10-10-10-10-10-12-12-12-12-|

E-------|
B-------|
G-------|
D-9-9-9-|
A-9-9-9-|
D-9-9-9-| (wait a few seconds before chorus)

Chorus

E---------------------------------|
B---------------------------------|
G---------------------------------|
D-2-2-5-2-2-5-10-10-10-10-7-7—7-7-|
A-2-2-5-2-2-5-10-10-10-10-7-7—7-7-|
D-2-2-5-2-2-5-10-10-10-10-7-7—7-7-|

E---------------------------------|
B---------------------------------|
G---------------------------------|
D-2-2-5-2-2-5-10-10-10-10-7-7—7-7-|
A-2-2-5-2-2-5-10-10-10-10-7-7—7-7-|
D-2-2-5-2-2-5-10-10-10-10-7-7—7-7-|

E---------------------------------|
B---------------------------------|
G---------------------------------|
D-2-2-5-2-2-5-10-10-10-10-7-7—7-7-|
A-2-2-5-2-2-5-10-10-10-10-7-7—7-7-|
D-2-2-5-2-2-5-10-10-10-10-7-7—7-7-|

E-------------------------------------|
B-------------------------------------|
G-------------------------------------|
D-10-10-10-10-10-10-10-10-12-12-12-12-|
A-10-10-10-10-10-10-10-10-12-12-12-12-|
D-10-10-10-10-10-10-10-10-12-12-12-12-|

E---------|
B---------|
G---------|
D-9-9-9-9-|
A-9-9-9-9-|
D-9-9-9-9-|

E--------------------------------|
B--------------------------------|
G--------------------------------|
D-2-2-2-2-2-2-2-2-2-2-2-2-2-2-2-2|
A-2-2-2-2-2-2-2-2-2-2-2-2-2-2-2-2|
D-2-2-2-2-2-2-2-2-2-2-2-2-2-2-2-2|

E-----------------------------------------|
B-----------------------------------------|
G-----------------------------------------|
D-5-5-5-5-5-5-5-5-10-10-10-10-10-10-10-10-|
A-5-5-5-5-5-5-5-5-10-10-10-10-10-10-10-10-|
D-5-5-5-5-5-5-5-5-10-10-10-10-10-10-10-10-|

E-----------------|
B-----------------|
G-----------------|
D-7-7-7-7-7-7-7-7-|
A-7-7-7-7-7-7-7-7-|
D-7-7-7-7-7-7-7-7-|

Bridge

E----------------------------------------|
B----------------------------------------|
G----------------------------------------|
D-10-10-10-10-10-10-10-7-2-2-2-2-2-2-2-2-|
A-10-10-10-10-10-10-10-7-2-2-2-2-2-2-2-2-|
D-10-10-10-10-10-10-10-7-2-2-2-2-2-2-2-2-|

E-----------------------------------|
B-----------------------------------|
G-----------------------------------|
D-5-5-5-5-5-5-5-5-7-7-7-7-7-7-7-7-7-|
A-5-5-5-5-5-5-5-5-7-7-7-7-7-7-7-7-7-|
D-5-5-5-5-5-5-5-5-7-7-7-7-7-7-7-7-7-|

E-------------------|
B-------------------|
G-------------------|
D-7-7-7-7-7-7-7-7-7-|
A-7-7-7-7-7-7-7-7-7-|
D-7-7-7-7-7-7-7-7-7-|

E----------------------------------------|
B----------------------------------------|
G----------------------------------------|
D-10-10-10-10-10-10-10-7-5-5-5-5-5-5-5-5-|
A-10-10-10-10-10-10-10-7-5-5-5-5-5-5-5-5-|
D-10-10-10-10-10-10-10-7-5-5-5-5-5-5-5-5-|

E---|
B---|
G---|
D-2-|
A-2-|
D-2-| (no guitar until “Never give up, no!”)
E---------------------|
B---------------------|
G---------------------|
D-5-5-7-7-10-10-12-12-|
A-5-5-7-7-10-10-12-12-|
D-5-5-7-7-10-10-12-12-|

E---------------------------|
B---------------------------|
G---------------------------|
D-2-2-2---10-10-10-10-7-7-7-|
A-2-2-2---10-10-10-10-7-7-7-|
D-2-2-2---10-10-10-10-7-7-7-|

E---------------------------|
B---------------------------|
G---------------------------|
D-2-2-2---10-10-10-10-7-7-7-|
A-2-2-2---10-10-10-10-7-7-7-|
D-2-2-2---10-10-10-10-7-7-7-|

Pre-Chorus

E-------------------------------------|
B-------------------------------------|
G-------------------------------------|
D-10-10-10-10-10-10-10-10-12-12-12-12-|
A-10-10-10-10-10-10-10-10-12-12-12-12-|
D-10-10-10-10-10-10-10-10-12-12-12-12-|

E---------|
B---------|
G---------|
D-9-9-9-9-|
A-9-9-9-9-|
D-9-9-9-9-|

Chorus

E---------------------------------|
B---------------------------------|
G---------------------------------|
D-2-2-2-2-2-2-2-2-5-5-5-5-5-5-5-5-|
A-2-2-2-2-2-2-2-2-5-5-5-5-5-5-5-5-|
D-2-2-2-2-2-2-2-2-5-5-5-5-5-5-5-5-|

E--------------------------------------|
B--------------------------------------|
G--------------------------------------|
D-10-10-10-10-10-10-10-7-7-7-7-7-7-7-7-|
A-10-10-10-10-10-10-10-7-7-7-7-7-7-7-7-|
D-10-10-10-10-10-10-10-7-7-7-7-7-7-7-7-|

(Wait a couple of seconds before playing:)

Outro

E---|
B---|
G---|
D-2-|
A-2-|
D-2-|

That’s about it! Thanks for my tab. Have fun, and God bless!
Tap to rate this tab
# A B C D E F G H I J K L M N O P Q R S T U V W X Y Z