Song name
# A B C D E F G H I J K L M N O P Q R S T U V W X Y Z

Skillet - The Older I Get tab

_______________________________________________________________________
INTRO

:-------13--12---------------------------------:
:------------------------------13--13--12------:
:-12/14---------14—-14/12~--12-------------12~-:
:----------------------------------------------:
:----------------------------------------------:
:----------------------------------------------:

:-------13--12------------------------------------:
:------------------------------13--13—-13/15------:
:-12/14---------14--14/12~--12----------------12~-:
:-------------------------------------------------:
:-------------------------------------------------:
:-------------------------------------------------:

_______________________________________________________________________
VERSE

:----------:----------:-------13--12---------------------------------:
:----------:----------:------------------------------13--13--12------:
:----------:----------:-12/14---------14—-14/12~--12-------------12~-:
:----------:----------:----------------------------------------------:
:----------:----------:----------------------------------------------:
:----------:----------:----------------------------------------------:

:-------13--12------------------------------------:
:------------------------------13--13—-13/15------:
:-12/14---------14--14/12~--12----------------12~-:
:-------------------------------------------------:
:-------------------------------------------------:
:-------------------------------------------------:

_______________________________________________________________________
PRE-CHORUS

[Skillet doesn’t actually play the pre-chorus like this...
 so basically i made this part up... and it actually sounds nice...]

[i’m sure you’ll figure the timing out...]

:---------------------------------------------------------------------:
:---------------------------------------------------------------------:
:---------------------------------------------------------------------:
:-00000000-22222222-3333333333333333-00000000-22222222-333333333------:
:-00000000-22222222-3333333333333333-00000000-22222222-333333333------:
:-00000000-22222222-3333333333333333-00000000-22222222-333333333------:
  ........ ........ ......... .. ..  ........ ........ ........

_______________________________________________________________________
CHORUS

:-------------------------------------|
:-------------------------------------|
:-5555555555555555--------------------|
:-5555555555555555-5555555555555555---|
:-3333333333333333-5555555555555555---|
:------------------5555555555555555---|

 -------------------------------------:
 -------------------------------------:
 -------------------------------------:
 -00000000-22222222-33333333-55555555-:
 -00000000-22222222-33333333-55555555-:
 -00000000-22222222-33333333-55555555-:

:-----------------------------------|
:-----------------------------------|
:-5555555555555555------------------|
:-5555555555555555-5555555555555555-|
:-3333333333333333-5555555555555555-|
:------------------5555555555555555-|

 -----------------------------------:
 -----------------------------------:
 -----------------------------------:
 -00000000-22222222-33333333-5~-----:
 -00000000-22222222-33333333-5~-----:
 -00000000-22222222-33333333-5~-----:

_______________________________________________________________________
INTERLUDE

:-------13--12------------------------------------:
:------------------------------13--13—-13/15------:
:-12/14---------14--14/12~--12----------------12~-:
:-------------------------------------------------:
:-------------------------------------------------:
:-------------------------------------------------:

_______________________________________________________________________
VERSE

:----------:----------:-------13--12---------------------------------:
:----------:----------:------------------------------13--13--12------:
:----------:----------:-12/14---------14—-14/12~--12-------------12~-:
:----------:----------:----------------------------------------------:
:----------:----------:----------------------------------------------:
:----------:----------:----------------------------------------------:

:-------13--12------------------------------------:
:------------------------------13--13—-13/15------:
:-12/14---------14--14/12~--12----------------12~-:
:-------------------------------------------------:
:-------------------------------------------------:
:-------------------------------------------------:

_______________________________________________________________________
PRE-CHORUS

:---------------------------------------------------------------------:
:---------------------------------------------------------------------:
:---------------------------------------------------------------------:
:-00000000-22222222-3333333333333333-00000000-22222222-333333333------:
:-00000000-22222222-3333333333333333-00000000-22222222-333333333------:
:-00000000-22222222-3333333333333333-00000000-22222222-333333333------:
  ........ ........ ......... .. ..  ........ ........ ........

_______________________________________________________________________
CHORUS

:-------------------------------------|
:-------------------------------------|
:-5555555555555555--------------------|
:-5555555555555555-5555555555555555---|
:-3333333333333333-5555555555555555---|
:------------------5555555555555555---|

 -------------------------------------:
 -------------------------------------:
 -------------------------------------:
 -00000000-22222222-33333333-55555555-:
 -00000000-22222222-33333333-55555555-:
 -00000000-22222222-33333333-55555555-: [x2]

_______________________________________________________________________
BRIDGE

:---------------------------------------------------------------------:
:---------------------------------------------------------------------:
:-----------------------------------5555555555555555------------------:
:-7777777777777777-3333333333333333-5555555555555555-5555555555555555-:
:-7777777777777777-3333333333333333-3333333333333333-5555555555555555-:
:-7777777777777777-3333333333333333------------------5555555555555555-:

:----------------------------------------------------------:----------:
:----------------------------------------------------------:----------:
:----------------------------------------------------------:----------:
:-7777777777777777-3333333333333333-00000000-22222222-3~~~-:-////////-:
:-7777777777777777-3333333333333333-00000000-22222222-3~~~-:-////////-:
:-7777777777777777-3333333333333333-00000000-22222222-3~~~-:-////////-:
                                                             ^
                                                             ^
                                                         Pickscrape
                                                         ^
[once again... i made this up...]------------------------^
_______________________________________________________________________
OUTRO CHORUS

:-------------------------------------|
:-------------------------------------|
:-5555555555555555--------------------|
:-5555555555555555-5555555555555555---|
:-3333333333333333-5555555555555555---|
:------------------5555555555555555---|

 -------------------------------------:
 -------------------------------------:
 -------------------------------------:
 -00000000-22222222-33333333-55555555-:
 -00000000-22222222-33333333-55555555-:
 -00000000-22222222-33333333-55555555-: [x3]

:-------------------------------------|
:-------------------------------------|
:-5555555555555555--------------------|
:-5555555555555555-5555555555555555---|
:-3333333333333333-5555555555555555---|
:------------------5555555555555555---|

 -------------------------------------:
 -------------------------------------:
 ------------------------------5------:
 -00000000-22222222-33333333-5-5-3~~~-:
 -00000000-22222222-33333333-5-3-3~~~-:
 -00000000-22222222-33333333-5---3~~~-:

_______________________________________________________________________
END
Tap to rate this tab
 
# A B C D E F G H I J K L M N O P Q R S T U V W X Y Z