Song name
# A B C D E F G H I J K L M N O P Q R S T U V W X Y Z

Skiltron - Bagpipes Of War tab

|--8---8/6--8---8--6--11---11--13--10--6-8-10-8--8/6--8---8--10-11-13---13/15-|
|-----------------------------------------------------------------------------|
|-----------------------------------------------------------------------------|
|-----------------------------------------------------------------------------|
|-----------------------------------------------------------------------------|
|-----------------------------------------------------------------------------|


|-11/10h11---8---8/6--8---8--10--11---11--13--10-----15---15--13--15--11--13-|
|----------11--------------------------------------11------------------------|
|----------------------------------------------------------------------------|
|----------------------------------------------------------------------------|
|----------------------------------------------------------------------------|
|----------------------------------------------------------------------------|


|-10--11--6--8---------------------------------------------------------------|
|----------------------------------------------------------------------------|
|----------------------------------------------------------------------------|
|----------------------------------------------------------------------------|
|----------------------------------------------------------------------------|
|----------------------------------------------------------------------------|

repeat this three sentence x2

|-8-h10p8p6-8--8h10p8p6-11--11-13-10p8h10p8/6h8--8-10-11-15--11-13-10/8/6h8--|
|----------------------------------------------------------------------------|
|----------------------------------------------------------------------------|
|----------------------------------------------------------------------------|
|----------------------------------------------------------------------------|
|----------------------------------------------------------------------------|


|-8h10p8p6-11--11-13-10p8h10p8/6h8--8-10-11-15--11-13-10--8--6--8------------|
|----------------------------------------------------------------------------|
|----------------------------------------------------------------------------|
|----------------------------------------------------------------------------|
|----------------------------------------------------------------------------|
|----------------------------------------------------------------------------|
Tap to rate this tab
# A B C D E F G H I J K L M N O P Q R S T U V W X Y Z