Song name
# A B C D E F G H I J K L M N O P Q R S T U V W X Y Z

Skinhate - Medlyak tab

-------------------------------------------------------------------------------
			     МЄДЛЯК  - SkinHate
-------------------------------------------------------------------------------
Tabbed by: Deil Zombie
Email:glebosol@yandex.ru

Tuning: Standart

Intro x2 [0:00-0:12]
e|--------------------------------------------------------|
B|--------------------------------------------------------|
G|--------------------------------------------------------|
D|------0---------0--------0---------0--------------------|
A|----2---2---2-2---2----0---0---0-0---0------------------|
E|--0-------3----------2-------1---------1----------------|

Melodic Part x6 [0:12-0:51]
e|--------------------------------------------------------|
B|--------------------------------------------------------|
G|--------------------------------------------------------|
D|--------0---------0----------0---------0----------------|
A|----2-2---2---2-2---2----0-0---0---0-0---0--------------|
E|--0---------3----------2---------1---------1------------|

First Chorus x4 [0:51-1:16]
e|--------------------------------------------------------|
B|--------------------------------------------------------|
G|--------------------------------------------------------|
D|---2-22-222--5-55-5555--4-44444--3-33-3333--------------|
A|---2-22-222--5-55-5555--4-44444--3-33-3333--------------|
E|---0-00-000--3-33-3333--2-22222--1-11-1111--------------|

Melodic Part x6 [1:16-1:55]
e|--------------------------------------------------------|
B|--------------------------------------------------------|
G|--------------------------------------------------------|
D|--------0---------0----------0---------0----------------|
A|----2-2---2---2-2---2----0-0---0---0-0---0--------------|
E|--0---------3----------2---------1---------1------------|

First Chorus x4 [1:55-2:20]
e|--------------------------------------------------------|
B|--------------------------------------------------------|
G|--------------------------------------------------------|
D|---2-22-222--5-55-5555--4-44444--3-33-3333--------------|
A|---2-22-222--5-55-5555--4-44444--3-33-3333--------------|
E|---0-00-000--3-33-3333--2-22222--1-11-1111--------------|

Post-Chorus x2 [2:20-2:46]
e|--------------------------------------------------------|
B|--------------------------------------------------------|
G|--------------------------------------------------------|
D|--2-33-2---5555555555555555--3333333333333333---2-33-2--|
A|--2-33-2---5555555555555555--3333333333333333---2-33-2--|
E|--0-11-0---3333333333333333--1111111111111111---0-11-0--|

Loong Riff [2:46-2:59]
e|--------------------------------------------------------|
B|--------------------------------------------------------|
G|--------------------------------------------------------|
D|--2-----------------------------------------------------|
A|--2-----------------------------------------------------|
E|--0-----------------------------------------------------|

Pre-Chorus x4 [2:59-3:24]
e|--------------------------------------------------------|
B|--------------------------------------------------------|
G|--------------------------------------------------------|
D|--------------------------------------------------------|
A|--------------------------------------------------------|
E|--000-1-1-1-0---3-3-3-5-5-5-1-1-1-3-3-3-1-1-3-3---------|

Second Chorus x4 [3:24-3:50]
e|--------------------------------------------------------|
B|--------------------------------------------------------|
G|--------------------------------------------------------|
D|--2--3--2---5--7--3--5--3--5----------------------------|
A|--2--3--2---5--7--3--5--3--5----------------------------|
E|--0--1--0---3--5--1--3--1--3----------------------------|

Post-Chorus x2 [3:50-4:15]
e|--------------------------------------------------------|
B|--------------------------------------------------------|
G|--------------------------------------------------------|
D|--2-33-2---5555555555555555--3333333333333333---2-33-2--|
A|--2-33-2---5555555555555555--3333333333333333---2-33-2--|
E|--0-11-0---3333333333333333--1111111111111111---0-11-0--|

Loong Riff [4:15-4:25]
e|--------------------------------------------------------|
B|--------------------------------------------------------|
G|--------------------------------------------------------|
D|--2-----------------------------------------------------|
A|--2-----------------------------------------------------|
E|--0-----------------------------------------------------|

Melodic Part, repeat until end [4:25-5:19]
e|--------------------------------------------------------|
B|--------------------------------------------------------|
G|--------------------------------------------------------|
D|--------0---------0----------0---------0----------------|
A|----2-2---2---2-2---2----0-0---0---0-0---0--------------|
E|--0---------3----------2---------1---------1------------|

===============================================================================
Tap to rate this tab
# A B C D E F G H I J K L M N O P Q R S T U V W X Y Z