Song name
# A B C D E F G H I J K L M N O P Q R S T U V W X Y Z

Skip The Use - Enemy tab

Accordage un demi ton en dessous

 - intro :

|---------------------------------------------|
|---------------------------------------------|
|-------10-----------17-----------14-------12-|
|----11----11-----13----13-----11----11----11-|
|-11-----------14-----------12----------12-12-|
|---------------------------------------------|

 - couplet 1 :

 Pour le rythme ├ęcoutez la piste, rien de bien m├ęchant.

 F#m / C#m / Bm / Bm

|-------------7-|-10--9---7---9-|-9---12--7---9-|-10--9---7---9-|
|-10--9---7---7-|-10--9---7---7-|-10--9---7---7-|-10--9---7---7-|
|-11--9---7---7-|-x---9---7---7-|-11--9---7---7-|-x---9---7---7-|
|-11--11--9---9-|-11--11--9---x-|-11--x---9---x-|-11--11--9---x-|
|-9---11--9---9-|-9---11--9---9-|-9---11--9---9-|-9---11--9---9-|
|-----9---7---7-|-----9---7---7-|-----9---7---7-|-----9---7---7-|

 - refrain 1 :

|-------------------------------------------------------------------|
|-------------------------------------------------------------------|
|-------------------------------------------------------------------|
|-------------------------------------------------------------------|
|-9-9-9-9-9-12-9-7--------------------------------------------------|
|------------------9-9-9-9-9-12-9-8-7-7-7-7-7-5-7-5-7-7-7-5-5-5-7-5-|

|------------------------------------------------------------------|
|------------------------------------------------------------------|
|------------------------------------------------------------------|
|------------------------------------------------------------------|
|-/5-5-5-5-5-9-8-7-4-4-4-4-4-7-4-7-9-9-9-9-9-----------------------|
|--------------------------------------------0-2-0-2-2-2-0-0-0-2-0-|

|-------------------------------------------------------------------|
|-------------------------------------------------------------------|
|-------------------------------------------------------------------|
|-------------------------------------------------------------------|
|-9-9-9-9-9-12-9-7--------------------------------------------------|
|------------------9-9-9-9-9-12-9-8-7-7-7-7-7-5-7-5-7-7-7-5-5-5-7-5-|

|----------------------------------------------------------------|
|----------------------------------------------------------------|
|----------------------------------------------------------------|
|----------------------------------------------------------------|
|-/5-5-5-5-5-9-8-7-4-4-4-4-4-7-4-7-9-9-9-9-9-9-9-9---------------|
|--------------------------------------------------5-5-5-7-7-7-9-|

|---------------------------------------------|
|---------------------------------------------|
|-------10-----------17-----------14-------12-|
|----11----11-----13----13-----11----11----11-|
|-11-----------14-----------12----------12-12-|
|---------------------------------------------|

 - couplet 2 :

|-9---12--7---9-|-10--9---7---9-|-9---12--7---9-|-10--9---7---9-|
|-10--9---7---7-|-10--9---7---7-|-10--9---7---7-|-10--9---7---7-|
|-11--9---7---7-|-x---9---7---7-|-11--9---7---7-|-x---9---7---7-|
|-11--x---9---x-|-11--11--9---x-|-11--x---9---x-|-11--11--9---x-|
|-9---11--9---9-|-9---11--9---9-|-9---11--9---9-|-9---11--9---9-|
|-----9---7---7-|-----9---7---7-|-----9---7---7-|-----9---7---7-|

 - refrain 2 :

|-------------------------------------------------------------------|
|-------------------------------------------------------------------|
|-------------------------------------------------------------------|
|-------------------------------------------------------------------|
|-9-9-9-9-9-12-9-7--------------------------------------------------|
|------------------9-9-9-9-9-12-9-8-7-7-7-7-7-5-7-5-7-7-7-5-5-5-7-5-|

|------------------------------------------------------------------|
|------------------------------------------------------------------|
|------------------------------------------------------------------|
|------------------------------------------------------------------|
|-/5-5-5-5-5-9-8-7-4-4-4-4-4-7-4-7-9-9-9-9-9-----------------------|
|--------------------------------------------0-2-0-2-2-2-0-0-0-2-0-|

|-------------------------------------------------------------------|
|-------------------------------------------------------------------|
|-------------------------------------------------------------------|
|-------------------------------------------------------------------|
|-9-9-9-9-9-12-9-7--------------------------------------------------|
|------------------9-9-9-9-9-12-9-8-7-7-7-7-7-5-7-5-7-7-7-5-5-5-7-5-|

|----------------------------------------------------------------|-----|
|----------------------------------------------------------------|-----|
|----------------------------------------------------------------|-11*-|
|----------------------------------------------------------------|-----|
|-/5-5-5-5-5-9-8-7-4-4-4-4-4-7-4-7-9-9-9-9-9-9-9-9---------------|-----|
|--------------------------------------------------5-5-5-7-7-7-9-|-----|

 - pont :

-------------------------------------------------|
-------19-------19----19-------17-------17----17-|
-18-18----18-18----18----18-18----18-18----18----|
-------------------------------------------------|
-------------------------------------------------|
-------------------------------------------------|

-------------------------------------------------|
-------15-------15----15-------14-------14----14-|
-16-16----16-16----16----14-14----14-14----14----|
-------------------------------------------------|
-------------------------------------------------|
-------------------------------------------------|

-------------------------------------------------|
-------15-------15----15-------14-------14----14-|
-14-14----14-14----14----14-14----14-14----14----|
-------------------------------------------------|
-------------------------------------------------|
-------------------------------------------------|

-------------------------------------------------|
-------12-------12----12-------14-------14----14-|
-13-13----13-13----13----13-13----13-13----13----|
-------------------------------------------------|
-------------------------------------------------|
-------------------------------------------------|

-------------------------------------------------|
-------10-------10----10-------12-------12----12-|
-11-11----11-11----11----11-11----11-11----11----|
-------------------------------------------------|
-------------------------------------------------|
-------------------------------------------------|

----------------------------------------------|-------------------------|
-------14-------14----14-------12-------12----|-10----14----12----14----|
-11-11----11-11----11----11-11----11-11----11-|-11*x8-11*x8-11*x8-11*x7-|
----------------------------------------------|-------------------------|
----------------------------------------------|-------------------------|
----------------------------------------------|-------------------------|

 - refrain 3 / ending :

|-------------------------------------------------------------------|
|-------------------------------------------------------------------|
|-------------------------------------------------------------------|
|-------------------------------------------------------------------|
|-9-9-9-9-9-12-9-7--------------------------------------------------|
|------------------9-9-9-9-9-12-9---7-7-7-7-7-5-7-5-7-7-7-5-5-5-7---|

|------------------------------------------------------------------|
|------------------------------------------------------------------|
|------------------------------------------------------------------|
|------------------------------------------------------------------|
|-/5-5-5-5-5-5-5-5-4-4-4-4-4-4-4-4---------------------------------|
|----------------------------------2-2-2-2-2-0-2-0-2-2-2-0-0-0-2-0-|

|-----------------------------------------------------------------|
|-----------------------------------------------------------------|
|-----------------------------------------------------------------|
|-----------------------------------------------------------------|
|-9-9-9-9-9-9-9-9-------------------------------------------------|
|-----------------9-9-9-9-9-9-9-9-7-7-7-7-7-5-7-5-7-7-7-5-5-5-7-5-|

|------------------------------------------------------------------|
|------------------------------------------------------------------|
|------------------------------------------------------------------|
|------------------------------------------------------------------|
|-/5-5-5-5-5-5-5-5-4-4-4-4-4-4-4-4---------------------------------|
|----------------------------------2-2-2-2-2-0-2-0-2-2-2-0-0-0-2-0-|

|-----------------------------------------------------------------|
|-----------------------------------------------------------------|
|-----------------------------------------------------------------|
|-----------------------------------------------------------------|
|-9-9-9-9-9-9-9-9-------------------------------------------------|
|-----------------9-9-9-9-9-9-9-9-7-7-7-7-7-5-7-5-7-7-7-5-5-5-7-5-|

|-------------------|
|-------------------|
|-------------------|
|-------------------|
|-5*-4*-------------|
|-------2*-2-2-0-2*-|
Tap to rate this tab
# A B C D E F G H I J K L M N O P Q R S T U V W X Y Z