Song name
# A B C D E F G H I J K L M N O P Q R S T U V W X Y Z

Skitarg - Jag Bryter Nacken Av Din Hast tab

Satt och freeze frame doms youtube klipp, eftersom inga tabs var uppe tidigare.
Tolka och spela det hur ni vill! Bara det skriker ur era Marshell amps är jag nöjd :P

Stäm ner gitarren ett helt tonsteg (D G C F A D)

                             (En "strum")
|------17-----15---------|-------------------------|
|---13------13-----13-17-|--15-18-15--13-15--------|
|-14------14-----14------|--14-17-14--12-14--------|
|------------------------|-------------------------|
|------------------------|-------------------------|
|------------------------|-------------------------|x2

|----12----10------------|-------------------------|
|--10----10----10-13-----|--10-12-13-12-10---------|
|-9-----9-----9----------|-9------------------12---|
|------------------------|-------------------------|
|------------------------|-------------------------|
|------------------------|-------------------------|x2
Tap to rate this tab
 
# A B C D E F G H I J K L M N O P Q R S T U V W X Y Z