Song name
# A B C D E F G H I J K L M N O P Q R S T U V W X Y Z

Skycycle - Its Terror Time Again tab

-------------------------------------------------------------------------------
               (Its) Terror Time Again - Skycycle
http://www.answers.com/topic/skycycle (they do exist)
-------------------------------------------------------------------------------
fun, catchy song from that scooby doo movie. listen to it for the strumming patterns. 
I'm notating is the general beat (one note on tab = quarter note).
Tabbed by: rvaen
Email: andy@lazysranch.org

Tuning: Standard

intro
e|-----------------------------------|
B|-----------------------------------|
G|--7-5-7---7-5-7---7-5-7---7-5-7----|
D|--7-5-7---7-5-7---7-5-7---7-5-7----|
A|--5-3-5---5-3-5---5-3-5---5-3-5----|
E|--------4~------5~------4~---------|

verse A
   D     C Bb      C   G   C#
e|------------------------------------------------|
B|--------------------------6-6-6-6---------------|
G|--7-7-7-5-3-3-3-3-5-5-4-4-6-6-6-6---------------|
D|--7-7-7-5-3-3-3-3-5-5-5-5-x-x-x-x---------------|
A|--5-5-5-3-1-1-1-1-3-3-5-5-4-4-4-4---------------|
E|----------------------3-3-----------------------|

chorus (virtually the same as verse)
   D     C Bb      G       C#
e|----------------------------------------------|
B|--------------------------6-6-6-6-------------|
G|--7-7-7-5-3-3-3-3-4-4-4-4-6-6-6-6-------------|  x2
D|--7-7-7-5-3-3-3-3-5-5-5-5-x-x-x-x-------------|
A|--5-5-5-3-1-1-1-1-5-5-5-5-4-4-4-4-------------|
E|------------------3-3-3-3---------------------|

bridge A
e|------------------|
B|------------------|
G|--7-5-7---7-5-7---|
D|--7-5-7---7-5-7---|
A|--5-3-5---5-3-5---|
E|--------4~--------|

verse A

chorus

bridge B
e|----------|
B|----------|
G|--7-5-7---|
D|--7-5-7---|
A|--5-3-5---|
E|----------|

verse B

D|----------------------------------------------------------`7-`7-|
A|----------------------------------------------------------`7-`7-|
E|-00000000111111113333333355555555666666669999999910101010-`5-`5-|
                                               (4x10)^     off-beat
chorus                                         not

intro riff

SOLO (over verse A changes)
         D        C Bb        C         G   C#
e|------------------4-5-----------------5--------------------|
B|------------6---------6-----6-8-8-8-6---8-5----------------|
G|-7-7-5-7--7------------------------------------------------|
D|-----------------------------------------------------------|
A|-----------------------------------------------------------|
E|-----------------------------------------------------------|

chorus

bridge A

verse B

chorus

last chord
    D
e|-------------------|
B|-------------------|
G|--7\---------------|
D|--7\---------------|
A|--5\---------------|
E|-------------------|

| /  slide up
| \  slide down
| h  hammer-on
| p  pull-off
| ~  vibrato
| +  harmonic
| x  Mute note
===============================================================================
Tap to rate this tab
# A B C D E F G H I J K L M N O P Q R S T U V W X Y Z