Song name
# A B C D E F G H I J K L M N O P Q R S T U V W X Y Z

Slackers - Wasted Days tab

Slackers - "Wasted Days"
Tab by Turbolicious

This is my absolute favorite Slackers song. The lyrics are awesome and the riff is 
super catchy.  Enjoy!


INTRO:

    AbMajor					DbMajor

|---------------------------------------------------------------------|
|---x-----4-------x--------4--------x--------4---------x---------6----|
|---x-----5-------x--------5--------x--------5---------x---------6----|
|---x-----6-------x--------6--------x--------6---------x---------6----|
|---------------------------------------------------------------------|
|---------------------------------------------------------------------|



MAIN RIFF


 AbM                                                           
|------------------------------|------------------------------|
|------------------------------|------------------------------|
|------------------------------|------------------------------|
|------------------------3--5--|------------------------3--5--|
|----------3-5---4-4---4-------|----------3-5---4-4---4-------|
|-4-4----4---------------------|-4-4----4---------------------|


                                                               
-------------------------------|------------------------------|
-------------------------------|------------------------------|
-------------------------------|------------------------------|
-------------------------3--5--|------------------------------|
-----------3-5---4-4---4-------|-----------3--5----------3-5--|
-4--4----4---------------------|-4--4----4-----4--4----4------|

BbM                             DbM              EbM
------------------------------|-------------------------------|
------------------------------|-------------------------------|
------------------------------|-------------------------------|
------------------------------|------------3--5---------------|
-----------5--7----------5--7-|-4--4----4--------5--5---5-3---|
-6--6----6------6--6----6-----|-----------------------------4-|










OUTRO:

|--------------------------------------------------------------------------|
|--------------------------------------------------------------------------|
|--------------------------------------------------------------------------|
|--------3----6---------6-----6-----6-----6----6----6----6-6--6-6--6-6-6---|
|--4-----------------------------------------------------------------------|
|--------------------------------------------------------------------------|



LYRICS and Chords:


                                         AbM
What have I done wrong that I should be sorry

                                     AbM  
You broke my heart, you left in no hurry

                     BbM  
what I'm sorry for is all those wasted days

DbM              EbM               AbM                          
all those wasted ways that I loved you




What didn't I do that made you want to leave me
My life was so full now it seems so empty
What I didn't do was love you every night
Like I wanted to be alive if I couldn't love you

Well I'll find another before this night's over
she may not be you, I might not be sober
but I'll make love with her until the morning light
thinking all the while, why I loved you 

Now what have I done that I should be sorry
What have I done wrong that I should be sorry
What have I done wrong . . .  *(starts the third guitar part)
What have I done wrong . . .
. . . That I should be sorry

[[For any corrections please add here or email me: yummyturbolicious@gmail.com]]
I should be sorry


Tap to rate this tab
 
# A B C D E F G H I J K L M N O P Q R S T U V W X Y Z