Song name
# A B C D E F G H I J K L M N O P Q R S T U V W X Y Z

Slackstring - Stranded tab

-------------------------------------------------------------------------------
			     Stranded - Slackstring
-------------------------------------------------------------------------------
Tabbed by:simpleman90	
Email:lukassp@hotmail.com

Thought I'd tab out this great song by slackstring since knowone else seems to
want to do it... Such a great band nobody knows about. Well I know 'em and they 
kick ass!! Hope this helps anyone trying to play their songs...

Tuning:Standard

Intro:

Guitar 1: A, E, D, Gbm, E  (play this 3 times)

After the first time the second guitar plays:

Guitar 2:

e|---------------------------------------------------------------------------|
B|----------2-------------5------------------------------------------2-------|
G|------2-4---4-2-4-2-4s6---6-4-2-----2-4-2----------------------2-4---4-2-4-|
D|-2h4----------------------------2h4-------4-2--------------2h4-------------|
A|----------------------------------------------4-2---2-4-2------------------|
d------------------------------5------------------------|

e|---------------------------------------------------------------------------|
B|--------5------------------------------------------------------------------|
G|-2--4s6---6-4-2-----2-4-2-2h4-2-2h4-2-1-2----------------------------------|
D|----------------2h4--------------------------------------------------------|
A|---------------------------------------------------------------------------|
E|---------------------------------------------------------------------------|

Verse:
  A           		      E
Where you goin' you're goin' away
  D                        Gbm               E
I'll never see the light, see the light of day
  A                                E
When you're gone you're gone for good
  D                           Gbm               E
I'll never treat you right, treat you like I should
  A                          E
You know you left me empty handed
  D                             Gbm      E
You know you left me feelin' stranded
  A                       E
You know I hurt so bad inside
  D                       Gbm
You know it's eatin' me alive
  E         A       E D Gbm
Eatin' me alive (2x)

Bridge:

	Part A				Part B
e|--------------------/---------------------------------------------------------
B|----------2---------/---------------------------------------------------------
G|------2-4---4-2-(4)-/-999-7-6-4-2-999-7-6-4-2-9h10-1010-7-6-4-2-66h7-6-44h6-4-
D|-2h4----------------/---------------------------------------------------------
A|--------------------/---------------------------------------------------------
E|--------------------/---------------------------------------------------------

(Repeat Part A once and Part B twice)

   A                E
Yesterday the day before
 D                     Gbm           E
You came a knockin' knockin' at my door
 A                            E
Now those good old days are gone
 D                               Gbm      E
And I just got to carry got to carry on yeah
  A                          E
You know you left me empty handed
  D                            Gbm       E
You know you left me feelin' stranded
  A                       E
You know I hurt so bad inside
  D                       Gbm
You know it's eatin' me alive
 E          A        E D Gbm
Eatin' me alive (2x)

(Repeat Bridge a few times and fade out)


That's it... not too hard 

Slackstring rules!!



| s  slide up
| s  slide down
| h  hammer-on
| p  pull-off
| ~  vibrato
| +  harmonic
| x  Mute note
===============================================================================
Tap to rate this tab
# A B C D E F G H I J K L M N O P Q R S T U V W X Y Z