Song name
# A B C D E F G H I J K L M N O P Q R S T U V W X Y Z

Slade - In For A Penny tab

Gtr I (E A D G B E) - 'Untitled'


 4/4
  Gtr I
   ~~

1st solo (1:23)
   E  E E E E E  E E E E E E   E E  E E  E E E  E E E E
|---------5-6-5--5-6-5-------------------------------------|
|-----5-6--------------6-6s8---8-8s10-8--5-5s6--5s3-3s5----|
|-/7-------------------------------------------------------|
|----------------------------------------------------------|
|----------------------------------------------------------|
|----------------------------------------------------------|


                      ~~
  E E E E  E  E  E    E E E E E E  E E E E E E E  E E  E E  E E E
|-----7-8-10-13-12----------5-6-5--5-6-5-----------------------------|
|---9-------------------5-6--------------8s6-6s8--8-8s10-8--5-5-6----|
|-9------------------/7----------------------------------------------|
|--------------------------------------------------------------------|
|--------------------------------------------------------------------|
|--------------------------------------------------------------------|


  E E E E   E E E E  E  E  E
|---------|-----7-8-10-13-12----|
|-5s3-3s5-|---9-----------------|
|---------|-9-------------------|
|---------|---------------------|
|---------|---------------------|
|---------|---------------------|


   ~~~~~~
   E
|-----------|
|-----------|
|-----------|
|-----------|
|-----------|
|-----------|


2nd solo (2:35)
   

   ~~
   E E E E E E E E   E E E E E E  E E   E E E E E E E E   E E E  E  E  E
|--------5-6-5-5-6-|-5----------------|-----------------|---7-8-10-13-12---|
|----5-6-----------|---6-6s8-8-8s10-8-|-5-5s6-5s3-3s5---|-9----------------|
|-/7---------------|------------------|---------------9-|------------------|
|------------------|------------------|-----------------|------------------|
|------------------|------------------|-----------------|------------------|
|------------------|------------------|-----------------|------------------|


   ~~
   E E E E E E E  E E E E E E  E E E E  E E E E E E E E E   E E E  E  E  E
|--------5-6-5-5-10-5-------------------------------------|---7-8-10-13-12---|
|----5-6--------------8-6-8-8S10-8-8-8S10-8-5-5S6-5S3-3S5-|-9----------------|
|-/7------------------------------------------------------|------------------|
|---------------------------------------------------------|------------------|
|---------------------------------------------------------|------------------|
|---------------------------------------------------------|------------------|


                                                                    ~~
  E E E E E E E E E E E E E E E E E E E E E E E E E E E E E E E  E  E
|----------------------------------------------------------------------|
|---5-6-8-6-5---5-6-8-6-5-----5-6-8-6-5---5-6-8-6-5-8-6-5-8-6-5--8S10--|
|-7-----------7-----------7-6-----------6------------------------------|
|----------------------------------------------------------------------|
|----------------------------------------------------------------------|
|----------------------------------------------------------------------|


  E E E E E E E E E E E E   E E E  E E E  E E E  E E E  E E E E E E E   E
|-6-5-3-6-5-3-6-5-3-6-5-3--------------------------------------------------|
|--------------------------10-8-6-10-8-6-10-8-6-10-8-6--5-6-8-5-2-2S3\-15--|
|--------------------------------------------------------------------------|
|--------------------------------------------------------------------------|
|--------------------------------------------------------------------------|
|--------------------------------------------------------------------------|


Tap to rate this tab
 
# A B C D E F G H I J K L M N O P Q R S T U V W X Y Z