Song name
# A B C D E F G H I J K L M N O P Q R S T U V W X Y Z

Slade - My Oh My tab

Slade - My Oh My (1983)

piano intro arranged for guitar:

--------------------------------------------------------|
---8-h-10------8--11-10-8-------3-h-5-----3--6-5-3------|
--10--------10------------10----5-------5----------5----|
--10------10----------------10--5-----5--------------5--|
--------------------------------------------------------|
--------------------------------------------------------|

-----------------------------------------------------3-|
---8-h-10------8--11-10-8-------3-h-5---5--3--1--0---0-|
--10--------10------------10----5-------5--4--2--0---0-|
--10------10----------------10--5--------------------0-|
-----------------------------------------------------2-|
---------------------------------------------------3---|

    C         F          C
I believe in woman My Oh My
      Em      Am          G
I believe in lovin' My oh my
         F            C
Don't a woman need a man
         Dm               F   G
Try and catch one if you can
      C       Dm    F     C    G
I believe in woman My Oh My

We all need someone to talk to My Oh My
We all need someone to talk to My Oh My
You need a shoulder to cry on
Call me I'll be standing by
We all need someone to talk to My Oh My

We all need a lotta lovin' My Oh My
Yeh a whole lotta lovin' My Oh My
I can lend a helping hand
If you ain't got nothing planned
We all need some lovin' My Oh My

Guitar solo:

E   A              Bm         A              Dbm   F#m            E
-----------------------------------------------------------------------|
-----------------------------------------------------10-9--------------|
------------------------------------------9----9----------9---9h11p9---|
-----7--9--9(sl)11--9p7----7h9p7---9h11-----11----11-------11----------|
-------------------------9---------------------------------------------|
-----------------------------------------------------------------------|

D   A    Bm   D   E    A               Bm  D     A       F         G    C
----------------------------------------------------------------------------|
------------------------------------------------------------6--------8----8-|
-----------------------------------------------------------5--------7----9--|
-----------------------7--9--9(sl)11--9p7----7h9p7--5(sl)7----7(sl)9---10---|
-------------------------------------------9--------------------------------|
----------------------------------------------------------------------------|

         C           Dm     F     C
So lets all swing together My Oh My
        Em          Am           G
We can all swing together My Oh My
            F                C
You've got troubles of your own
            Dm              F    G
No need to face them all alone
        C           Dm     F     C   G
We can all swing together My Oh My

So lets all pull together My Oh My
Yeh lets all pull together My Oh My
We can ride the stormy weather
If we all get out and try
So lets all pull together My Oh My
F        C          Dm     F     C
Yeh lets all pull together My Oh My

Solo to end:
  C             Dm  F C             Em    Am                G
---------------------------------------------------------------|
----------------------------------8--8--8-10p8---------8h10p8--|
--5--7--7(sl)9--7p5---5-5---(sl)9---------------(sl)9----------|
--------------------7------------------------------------------|
---------------------------------------------------------------|
---------------------------------------------------------------|

              F                 C           Dm         F
---------------------------------------------------------------|
--------8--8h10--10-10-12(sl)10p8--------8--6--8p6-5-----------|
--(sl)9-----------------------------(sl)9------------7p5-------|
---------------------------------------------------------------|
---------------------------------------------------------------|
---------------------------------------------------------------|

G   C           Dm  F   C   F   C               Dm  F      C
---------------------8p7----------------------------20p19------|
-----------------8-------8-----------------------20--------20--|
-----5--5h7(sl)9-----------------17--17h19(sl)21---------------|
-5h7-----------------------------------------------------------|
---------------------------------------------------------------|
---------------------------------------------------------------|

F   C                        Dm              F                    C
---------------------------------------------------------------------|
-------------13--13-----13--15b(17)-15b(17)-15b(17)r15p13-15b(17)r13-|
----12(sl)14---14-----14---------------------------------------------|
---------------------------------------------------------------------|
---------------------------------------------------------------------|
---------------------------------------------------------------------|



I do not own anything and I didn't make the tab, I just posted it. Thanks to Hunter 
Maxwell for tabbing this.
Tap to rate this tab
# A B C D E F G H I J K L M N O P Q R S T U V W X Y Z