Song name
# A B C D E F G H I J K L M N O P Q R S T U V W X Y Z

Slam - Gerimis Mengundang chords

Highlighted       Show chord diagrams
Intro  B E F# B G#m C#m F# B

  B         E                     F#        B                            
e|--7-7-7-6-4---4-------------------|-----6-7-6------------------------|
b|------------7---7-5---------------|-----------7-5-4------------------|
G|----------------------------------|----------------------------------|
D|----------------------------------|----------------------------------|
A|----------------------------------|----------------------------------|
E|----------------------------------|----------------------------------|

    G#m                 C#m               F#                      F#       B 
e|------------------6/7-6-----------|----------------------------------|
b|--------4-4/5-7-9-------9-7-------|--4/5-4-------------4---5-4-------|
G|--3-4-6---------------------------|-------6-4-3----4-6---6-----4-----|
D|----------------------------------|----------------------------------|
A|----------------------------------|----------------------------------|
E|----------------------------------|----------------------------------|



       B     E           B
  Kusangkakan panas berpanjangan
             C#m               F#          B
  Rupanya gerimis, rupanya gerimis mengundang
C#m            F#          B
  Dalam tak sedar ku kebasahan
 
 

        B     E           B
   Pernah juga kau pinta perpisahan
           C#m               F#          B
   Aku sangkakan itu hanyalah gurauan
C#m               F#          B
   Nyata kau serius dalam senyuman
 
 

             G#m
   Bukan sekejap denganmu
            E
   Bukan mainan hasratku
                F#
   Engkau pun tahu niatku
               B
   Tulus dan suci
 
 

                G#m
   Senang benar kau ucapkan
               E
   Kau anggap itu suratan
               F#
   Sikit pun riak wajahmu
              B
   Tiada terkilan
 
 

         E
   Hanya aku separuh nyawa
       B
   Menahan sebak di dada
     E
   Sedangkan kau bersahaja
        B
   Berlalu tanpa kata
          C#m           F#
   Terasa diri amat terhina
         B
   Kau lakukan
 
Solo  E B C#m F# B
         E B C#m F# B
 

         B     E           B
   Sia-sia kukorban selama ini
         C#m               F# 
   Jika kasihku jika hatiku
                B
   Kau guris
C#m               F#          B
   Dalam tak sedar ku menangis
Tap to rate this tab
# A B C D E F G H I J K L M N O P Q R S T U V W X Y Z