Song name
# A B C D E F G H I J K L M N O P Q R S T U V W X Y Z

Slapshock - Divine tab

Artist: Slapshock
Song: Divine
Album: Silence

Made by: Matt
E-mail: dit619@yahoo.com

Tuning: 
1 - D
2 - A
3 - F
4 - C
5 - G
6 - C

* - Pinch Harmonic 
m - Mute String

Intro
Repeat 1st & 2nd intro 2x

1st intro
D|--------------------------------------------------------------------|
A|--------------------------------------------------------------------|
F|--------------------------------------------------------------------|
C|-7-7m-7m-7m-7-7m-7m------3-2-3-2-0-7-7m-7m-7m-7-7m-7m-----7-5-7-5-0-|
G|-5-5m-5m-5m-5-5m-5m--3-5-----------5-5m-5m-5m-5-5m-5m--3-5----------|
C|--------------------------------------------------------------------|

D|------------------------------|
A|------------------------------|
F|------------------------------|
C|-0-12-0-10-8-0-8--8-7-0-8-7-0-|
G|------------------------------|
C|------------------------------|

2nd intro
D|--------------------------------------------------------------------|
A|--------------------------------------------------------------------|
F|--------------------------------------------------------------------|
C|-0m-0m-0m-0m-0m-0m---0m-0m-0m-0m-0m-0m---0m-0m-0m-0m-0m-0m----------|
G|-0m-0m-0m-0m-0m-0m---0m-0m-0m-0m-0m-0m---0m-0m-0m-0m-0m-0m----------|
C|-0m-0m-0m-0m-0m-0m---0m-0m-0m-0m-0m-0m---0m-0m-0m-0m-0m-0m----------|

D|--------------------------------------------------------------------|
A|--------------------------------------------------------------------|
F|--------------------------------------------------------------------|
C|-0m-0m-0m-0m-0m-0m---3m-3m-3m-3m-3m-3m----3m-3m-3m-3m-3m-3m---------|
G|-0m-0m-0m-0m-0m-0m---1m-1m-1m-1m-1m-1m----1m-1m-1m-1m-1m-1m---------|
C|-0m-0m-0m-0m-0m-0m--------------------------------------------------|

D|--------------------------------------------------------------------|
A|--------------------------------------------------------------------|
F|--------------------------------------------------------------------|
C|-5m-5m-5m-5m-5m-5m---5m-5m-5m-5m-5m---5m-5m-5m-5m-5m----------------|
G|-5m-5m-5m-5m-5m-5m---5m-5m-5m-5m-5m---5m-5m-5m-5m-5m----------------|
C|-5m-5m-5m-5m-5m-5m---5m-5m-5m-5m-5m---5m-5m-5m-5m-5m----------------|


Verse

D|--------------------------------------------------------------------|
A|--------------------------------------------------------------------|
F|--------------------------------------------------------------------|
C|-0m-0m-0m-0m-0m-0m---0m-0m-3m-3m-3m-2m-2m-2m-0m-0m------------------|
G|-0m-0m-0m-0m-0m-0m--------------------------------------------------|
C|-0m-0m-0m-0m-0m-0m--------------------------------------------------|

D|--------------------------------------------------------------------|
A|--------------------------------------------------------------------|
F|--------------------------------------------------------------------|
C|-0m-0m-0m-0m-0m-0m---0m-0m-3m-3m-3m-2m-2m-2m-0m-0m------------------|
G|-0m-0m-0m-0m-0m-0m--------------------------------------------------|
C|-0m-0m-0m-0m-0m-0m--------------------------------------------------|

D|--------------------------------------------------------------------|
A|--------------------------------------------------------------------|
F|--------------------------------------------------------------------|
C|-3m-3m-3m-3m-3m-3m---0m-0m-5m-5m-5m-3m-3m-3m-2m-2m------------------|
G|-3m-3m-3m-3m-3m-3m--------------------------------------------------|
C|-3m-3m-3m-3m-3m-3m--------------------------------------------------|

D|--------------------------------------------------------------------|
A|--------------------------------------------------------------------|
F|--------------------------------------------------------------------|
C|-5m-5m-5m-5m-5m-5m---5m-5m-5m-5m-5m---5m-5m-5m-5m-5m----------------|
G|-5m-5m-5m-5m-5m-5m---5m-5m-5m-5m-5m---5m-5m-5m-5m-5m----------------|
C|-5m-5m-5m-5m-5m-5m---5m-5m-5m-5m-5m---5m-5m-5m-5m-5m----------------|


Pre Chorus
Repeat 2x
D|-------------------------------------|
A|-------------------------------------|
F|-------------------------------------|
C|-------------------------------------|
G|-------------------------------------|
C|-0*--0*-0*--0*-0*--3*-0*-3*-0*-3*-5*-|

D|-------------------------------------|
A|-------------------------------------|
F|-------------------------------------|
C|-------------------------------------|
G|-------------------------------------|
C|-0*--0*-0*--0*-0*--3*-0*-3*-0*-3*-5*-|

D|-------------------------------------|
A|-------------------------------------|
F|-------------------------------------|
C|-------------------------------------|
G|-------------------------------------|
C|-8*--0*-8*--0*-8*-8*-0*-8*-0*-8*-10*-|

D|-------------------------------------|
A|-------------------------------------|
F|-------------------------------------|
C|-------------------------------------|
G|-------------------------------------|
C|-5*-0*-5*-0*-5*-5m-5m-0-5*-0*-5*-----|


Chorus

D|--------------------------------------------------------------------|
A|--------------------------------------------------------------------|
F|--------------------------------------------------------------------|
C|----------------------------------3-3-3-3-3-3-3---5-5-5-5-5-5-5-----|
G|----5---7---8-----5---8-----------1-1-1-1-1-1-1---3-3-3-3-3-3-3-----|
C|--------------------------7-----------------------------------------|

D|--------------------------------------------------------------------|
A|--------------------------------------------------------------------|
F|--------------------------------------------------------------------|
C|----------------------------------3-3-3-3-3-3-3---5-5-5-5-5-5-5-----|
G|----5---7---8-----5---8-----------1-1-1-1-1-1-1---3-3-3-3-3-3-3-----|
C|--------------------------7--5--3-----------------------------------|

Repeat 2nd intro, Verse, Pre Chorus and Chorus

Bridge
D|--------------------------------------------------------------------|
A|--------------------------------------------------------------------|
F|--------------------------------------------------------------------|
C|-0-0-0-0-0-0-0-0--0m-0m-0m--0-0-0-0--0m-0m-0m-0m-0m-0m--------------|
G|-0-0-0-0-0-0-0-0--0m-0m-0m--0-0-0-0--0m-0m-0m-0m-0m-0m--------------|
C|-0-0-0-0-0-0-0-0--0m-0m-0m--0-0-0-0--0m-0m-0m-0m-0m-0m--------------|

D|--------------------------------------------------------------------|
A|--------------------------------------------------------------------|
F|--------------------------------------------------------------------|
C|-0-0-0-0-0-0-0-0--0m-0m-0m--0-0-0-0-0-0-0--0m-0m-0m--3-3-3-3-3-3-3-3|
G|-0-0-0-0-0-0-0-0--0m-0m-0m--0-0-0-0-0-0-0--0m-0m-0m--1-1-1-1-1-1-1-1|
C|-0-0-0-0-0-0-0-0--0m-0m-0m--0-0-0-0-0-0-0--0m-0m-0m-----------------|

D|--------------------------------------------------------------------|
A|--------------------------------------------------------------------|
F|--------------------------------------------------------------------|
C|-0m-0m-0m--5-5-5-5-5-5-5-5------------------------------------------|
G|-0m-0m-0m--5-5-5-5-5-5-5-5------------------------------------------|
C|-0m-0m-0m--5-5-5-5-5-5-5-5------------------------------------------|

D|--------------------------------------------------------------------|
A|--------------------------------------------------------------------|
F|--------------------------------------------------------------------|
C|-0-0-0-5-7-0-0-7-8-0-0-0-8-7-0----0-0-0-5-7-0-0-7-8-0-0-0-3-2-0-----|
G|--------------------------------------------------------------------|
C|--------------------------------------------------------------------|

D|--------------------------------------------------------------------|
A|--------------------------------------------------------------------|
F|--------------------------------------------------------------------|
C|-0-0-0-5-7-0-0-7-8-0-0-0-8-7-0----0-3-0-5-0-7-0-5-0-3-0-0-10--------|
G|--------------------------------------------------------------------|
C|--------------------------------------------------------------------|

D|--------------------------------------------------------------------|
A|--------------------------------------------------------------------|
F|--------------------------------------------------------------------|
C|-0-0-0-5-7-0-0-7-8-0-0-0-8-7-0----0-0-0-5-7-0-0-7-8-0-0-0-3-2-0-----|
G|--------------------------------------------------------------------|
C|--------------------------------------------------------------------|

D|--------------------------------------------------------------------|
A|--------------------------------------------------------------------|
F|--------------------------------------------------------------------|
C|-0-0-0-5-7-0-0-7-8-0-0-0-8-7-0----0-3-0-5-0-7-0-5-0-3-0-2-0-3-3-3---|
G|--------------------------------------------------------------------|
C|--------------------------------------------------------------------|

D|--------------------------------------------------------------------|
A|--------------------------------------------------------------------|
F|--------------------------------------------------------------------|
C|-0-5-0-7-0-8-0-7-0-5-0-0-10-10--------------------------------------|
G|--------------------------------------------------------------------|
C|--------------------------------------------------------------------|

Repeat Chorus

D|--------------------------------------------------------------------|
A|--------------------------------------------------------------------|
F|--------------------------------------------------------------------|
C|-0-0-0-0-0-0-0-0--0m-0m-0m--0-0-0-0-0-0-0--0m-0m-0m-----------------|
G|-0-0-0-0-0-0-0-0--0m-0m-0m--0-0-0-0-0-0-0--0m-0m-0m-----------------|
C|-0-0-0-0-0-0-0-0--0m-0m-0m--0-0-0-0-0-0-0--0m-0m-0m-----------------|

D|--------------------------------------------------------------------|
A|--------------------------------------------------------------------|
F|--------------------------------------------------------------------|
C|-0-0-0-0-0-0-0-0--0m-0m-0m--0-0-0-0--0m-0m-0m-0m-0m-0m--------------|
G|-0-0-0-0-0-0-0-0--0m-0m-0m--0-0-0-0--0m-0m-0m-0m-0m-0m--------------|
C|-0-0-0-0-0-0-0-0--0m-0m-0m--0-0-0-0--0m-0m-0m-0m-0m-0m--------------|

sa wakas natapos din! enjoy mga parekoy!
Tap to rate this tab
# A B C D E F G H I J K L M N O P Q R S T U V W X Y Z