Song name
# A B C D E F G H I J K L M N O P Q R S T U V W X Y Z

Slave - I Am tab

intro
|--------------------15-16-17-----4|
|----------------------------------|
|----------------------------------|
|----------------------------------|
|----------------------------------|
|000000000000000-------------------|

pre-chorus
|--------------------------------|
|--------------------------------|
|--------------------------------|
|22334455667788991010111112121313|
|--------------------------------|
|--------------------------------|

verse
|-------------------------------------------------|2x
|-------------------------------------------------|
|-------------------------------------------------|
|-------------------------------------------------|
|101010121212101010121212-------------------------|
|------------------------1010101212121111111121212|

chorus
|--8899101099889910109988---------------------21212121|5x
|------------------------------------------17---------|
|---------------------------------------16------------|
|-----------------------------------------------------|
|-----------------------------------------------------|
|------------------------5h6ph7ph8p-------------------|

back 2 verse once then chorus and finally intro 7 times then the song is over. I'm the 
player 4 this band and this song is kra-z! play very fast!!!!
Tap to rate this tab
 
# A B C D E F G H I J K L M N O P Q R S T U V W X Y Z