Song name
# A B C D E F G H I J K L M N O P Q R S T U V W X Y Z

Slaves On Dope - Thanks For Nothing tab

Slaves on Dope- Thanks for Nothing

Tabbed by- sage76

Intro

Play twice

E---------------------------------------------------------------------|
B---------------------------------------------------------------------|
G---------------------------------------------------------------------|
D---------------------------------------------------------------------|
A---------------------------------------------------------------------|
E----2-2-2-5-5-5-7-3-3-2-2-2-5-5-5-7-3-3-2-2-2-5-5-5-7-3-3-5----------|


Play following 2 parts twice

E------------------------------------------------------------------------|
B------------------------------------------------------------------------|
G------------------------------------------------------------------------|
D---4----7-----9---5----4----7-----9---5----4----7-----9---5------777-5--|
A---4----7-----9---5----4----7-----9---5----4----7-----9---5------777-5--|
E---2----5-----7---3----2----5-----7---3----2----5-----7---3------777-5--|
			         				 |_____|
                                                                Palm Mute

E---------------------------------------------------------------------|
B---------------------------------------------------------------------|
G---------------------------------------------------------------------|
D---4----7-----9---5----4----7-----9---5----4----7-----9---5---7------|
A---4----7-----9---5----4----7-----9---5----4----7-----9---5---7------|
E---2----5-----7---3----2----5-----7---3----2----5-----7---3---5------|

Chorus

Play twice

E------------------------------------------------------------------------|
B------------------------------------------------------------------------|
G------------------------------------------------------------------------|
D---4----7-----9---5----4----7-----9---5----4----7-----9---5------777-5--|
A---4----7-----9---5----4----7-----9---5----4----7-----9---5------777-5--|
E---2----5-----7---3----2----5-----7---3----2----5-----7---3------777-5--|
								 |_____|
                                                                Palm Mute


E---------------------------------------------------------------------|
B---------------------------------------------------------------------|
G---------------------------------------------------------------------|
D---4----7-----9---5----4----7-----9---5----4----7-----9---5---7------|
A---4----7-----9---5----4----7-----9---5----4----7-----9---5---7------|
E---2----5-----7---3----2----5-----7---3----2----5-----7---3---5------|


Verse

E---------------------------------------------------|
B---------------------------------------------------|
G----4~---9b11r97b9r7--4~-------------------------|
D---------------------------------------------------|
A---------------------------------------------------|
E---------------------------------------------------|


Solo

E---------------------------------------------------|
B---------------------------------------------------|
G---------------------------------------------------|
D---------------------------------------------------|
A02223335555--77755733---02223335555--77755733----|
E---------------------------------------------------|


E---------------------------------------------------------------------|
B---------------------------------------------------------------------|
G-2-4-5-7-5-7-4----2-4-5-7-5-7-4----2-4-5-7-5-7-4----2-4-5-7----911--|
D---------------------------------------------------------------------|
A---------------------------------------------------------------------|
E---------------------------------------------------------------------|

There is some scratching in between which I have not bothered with. Just fiddle around 
you should get it.

Corrections/Suggestions are welcome.
Tap to rate this tab
# A B C D E F G H I J K L M N O P Q R S T U V W X Y Z