Song name
# A B C D E F G H I J K L M N O P Q R S T U V W X Y Z

Slayer - Tormentor tab

Help us improve GuitareTab! Take a short survey!
#----------------------------------PLEASE NOTE---------------------------------#
#This file is the author's own work and represents their interpretation of the #
#song. You may only use this file for private study, scholarship, or research. #
#------------------------------------------------------------------------------#

TORMENTOR
As recorded by Slayer
(From the 1983 Album SHOW NO MERCY)

Transcribed by cbliss66@dtnspeed.net
	

Words and Music by J.Hanneman
Arranged by Slayer

Gtr I (E A D G B E) - 'K.King'
Gtr II (E A D G B E) - 'J.Hanneman'
Gtr III (E A D G B E) - 'Solo.Gtr.'

   Intro
    Slow Rock Q=72
    E5     N.C.        E      N.C.                  E5     N.C.
   4/4
    Gtr I
             ~    ~~            PM------------|               ~~    ~~~
    E. S E E Q  S E.   E. S E E S S S S S S S S     E. S E E  Q  S  E.
||-------------------|---------------------------||---------------------|
||o------------------|--------------------------o||---------------------|
||-------------------|---------------------------||---------------------|
||-------------------|---------------------------||--------9-------10---|
||o-7--7-7-2------3--|-7--7-7-2-------------2---o||-7--7-7---10--9------|
||--0--0-0---3--2----|-0--0-0---3-0-2-3-5-3---3--||---------------------|
|
|   Gtr II
|            ~    ~~            PM------------|               ~~    ~~~
|   E. S E E Q  S E.   E. S E E S S S S S S S S     E. S E E  Q  S  E.
||-------------------|---------------------------||---------------------|
||o------------------|--------------------------o||---------------------|
||-------------------|---------------------------||---------------------|
||--2--2-2-----------|-2--2-2--------------------||-2--2-2--------------|
||o-2--2-2-2------3--|-2--2-2-2-------------2---o||-2--2-2-2--------3---|
||--0--0-0---3--2----|-0--0-0---3-0-2-3-5-3---3--||-0--0-0----3--2------|


  E5     N.C.                    E5     N.C.          E5      BsG54
                                           ~~    ~~~
  E. S E E  S S S  S S  S S  S   E. S E E  Q  S  E.   E. S E  E H
|------------------------------|--------------------|----------------|
|------------------------------|--------------------|----------------|
|------------------------------|--------------------|----------------|
|--------9-----------7----9----|--------9-------10--|----------------|
|-7--7-7---10-7-9-10---10---10-|-7--7-7---10--9-----|-7--7-7--2------|
|------------------------------|--------------------|-----------3----|
|
|           PM--------------|              ~~    ~~~
| E. S E E  S S S  S S  S S  S   E. S E E  Q  S  E.   E. S E  E H
|------------------------------|--------------------|----------------|
|------------------------------|--------------------|----------------|
|------------------------------|--------------------|----------------|
|-2--2-2-----------------------|-2--2-2-------------|-2--2-9\-2------|
|-2--2-2-2----------------2----|-2--2-2-2--------3--|-2--2-7\-2-5----|
|-0--0-0----3-0-2--3-5--3----3-|-0--0-0----3--2-----|-0--0------3----|


             Fast Rock Q=220
  G5                           N.C.
  +W            +W             E E E E E E E E   E E E E Q  Q
|------------||------------||------------------|---------------|
|------------||------------||o-----------------|---------------|
|------------||------------||------------------|---------------|
|------------||------------||------------------|---0-----------|
|------------||------------||o-7-3-0-7-3-0-7-3-|-0---3-2----2--|
|-(3)--------||-(3)--------||------------------|---------3-----|
|
| +W            +W             W                 W
|------------||------------||------------------|---------------|
|------------||------------||o-----------------|---------------|
|------------||------------||------------------|---------------|
|------------||------------||------------------|---------------|
|-(5)--------||-(5)--------||o-----------------|---------------|
|-(3)--------||-(3)--------||------------------|---------------|


  N.C.                                    N.C.
                                      Gtrs I, II
  E E E E E E E E   E E E E Q  Q          E E E E E E E E   E E E E Q  Q
|-----------------|----------------||-||------------------|---------------|
|-----------------|---------------o||-||o-----------------|---------------|
|-----------------|----------------||-||------------------|---------------|
|-----------------|----------------||-||------------------|---------------|
|-7-3-0-7-3-0-7-3-|-0-5-3-2-------o||-||o-7-3-0-7-3-0-7-3-|-0-5-3-2----2--|
|-----------------|---------3--2---||-||------------------|---------3-----|


  N.C.
  E E E E E E E E   E E E E Q  Q
|-----------------|----------------||-|
|-----------------|---------------o||-|
|-----------------|----------------||-|
|-----------------|----------------||-|
|-7-3-0-7-3-0-7-3-|-0-5-3-2-------o||-|
|-----------------|---------3--2---||-|


    E5         D5    E5               C5    D5
    Q  E E E E S +S  E   +Q   E E E E S +S  E
||---------------------|-----------------------|
||o--------------------|-----------------------|
||---------------------|-----------------------|
||--2----------7-(7)s9-|-(9)----------5-(5)s7--|
||o-2----------5-(5)s7-|-(7)----------3-(3)s5--|
||--0--0-0-0-0---------|------0-0-0-0----------|


                                         $
       N.C.
                             PM----|
  +Q   E E E E E E   +Q   Q  E E E E
|------------------|------------------||-||
|------------------|-----------------o||-||
|------------------|------------------||-||
|-(7)--------------|------------------||-||
|-(5)----------0-2-|-(2)-------------o||-||
|------0-0-0-0-----|------3--2-5-3-2--||-||


 1st and 2nd Verse
  E5         D5    E5               C5    D5
  Q  E E E E S +S  E   +Q   E E E E S +S  E
|--------------------|-----------------------|
|--------------------|-----------------------|
|--------------------|-----------------------|
|-2----------7-(7)s9-|-(9)----------5-(5)s7--|
|-2----------5-(5)s7-|-(7)----------3-(3)s5--|
|-0--0-0-0-0---------|------0-0-0-0----------|


       N.C.
                             PM----|
  +Q   E E E E E E   +Q   Q  E E E E
|------------------|-----------------|
|------------------|-----------------|
|------------------|-----------------|
|-(7)--------------|-----------------|
|-(5)----------0-2-|-(2)-------------|
|------0-0-0-0-----|------3--2-5-3-2-|


  E5         D5    E5               C5    D5
  Q  E E E E S +S  E   +Q   E E E E S +S  E
|--------------------|------------------------|
|--------------------|------------------------|
|--------------------|------------------------|
|-2----------7-(7)s9-|-(9)----------5-(5)s7---|
|-2----------5-(5)s7-|-(7)----------3-(3)s5---|
|-0--0-0-0-0---------|------0-0-0-0-----------|


       N.C.
                             PM----|
  +Q   E E E E E E   +Q   Q  E E E E
|------------------|-----------------|
|------------------|-----------------|
|------------------|-----------------|
|-(7)--------------|-----------------|
|-(5)----------0-2-|-(2)-------------|
|------0-0-0-0-----|------3--2-5-3-2-|


  E5         D5    E5               C5    D5
  Q  E E E E S +S  E   +Q   E E E E S +S  E
|--------------------|------------------------|
|--------------------|------------------------|
|--------------------|------------------------|
|-2----------7-(7)s9-|-(9)----------5-(5)s7---|
|-2----------5-(5)s7-|-(7)----------3-(3)s5---|
|-0--0-0-0-0---------|------0-0-0-0-----------|


       N.C.
                             PM----|
  +Q   E E E E E E   +Q   Q  E E E E
|------------------|-----------------|
|------------------|-----------------|
|------------------|-----------------|
|-(7)--------------|-----------------|
|-(5)----------0-2-|-(2)-------------|
|------0-0-0-0-----|------3--2-5-3-2-|


  E5         D5    E5               C5    D5
  Q  E E E E S +S  E   +Q   E E E E S +S  E
|--------------------|------------------------|
|--------------------|------------------------|
|--------------------|------------------------|
|-2----------7-(7)s9-|-(9)----------5-(5)s7---|
|-2----------5-(5)s7-|-(7)----------3-(3)s5---|
|-0--0-0-0-0---------|------0-0-0-0-----------|


                            To Coda
       N.C.                              N.C.
                             PM----|
  +Q   E E E E E E   +Q   Q  E E E E     E E E E E E E E   E E E E Q  Q
|------------------|-----------------||------------------|---------------|
|------------------|-----------------||o-----------------|---------------|
|------------------|-----------------||------------------|---------------|
|-(7)--------------|-----------------||------------------|---------------|
|-(5)----------0-2-|-(2)-------------||o-7-3-0-7-3-0-7-3-|-0-5-3-2----2--|
|------0-0-0-0-----|------3--2-5-3-2-||------------------|---------3-----|


                                        Chorus
  N.C.                                   E5           B5
                                            PM------|          PM--------|
  E E E E E E E E   E E E E Q  Q         Q  E E E E E E   +Q   E E E E E E
|-----------------|----------------||-||----------------|------------------|
|-----------------|---------------o||-||----------------|------------------|
|-----------------|----------------||-||----------------|------------------|
|-----------------|----------------||-||--------------4-|-(4)--4-4-4-4-4-4-|
|-7-3-0-7-3-0-7-3-|-0-5-3-2-------o||-||-2------------2-|-(2)--2-2-2-2-2-2-|
|-----------------|---------3--2---||-||-0--0-0-0-0-0---|------------------|


  C5           B5                     E5           B5
     PM------|          PM--------|      PM------|          PM--------|
  Q  E E E E E E   +Q   E E E E E E   Q  E E E E E E   +Q   E E E E E E
|----------------|------------------|----------------|------------------|
|----------------|------------------|----------------|------------------|
|----------------|------------------|----------------|------------------|
|-5--5-5-5-5-5-4-|-(4)--4-4-4-4-4-4-|--------------4-|-(4)--4-4-4-4-4-4-|
|-3--3-3-3-3-3-2-|-(2)--2-2-2-2-2-2-|-2------------2-|-(2)--2-2-2-2-2-2-|
|----------------|------------------|-0--0-0-0-0-0---|------------------|


  C5           D5       N.C.             E5           B5
     PM------|                              PM------|          PM--------|
  Q  E E E E E E   +Q    Q    Q    Q     Q  E E E E E E   +Q   E E E E E E
|----------------|---------------------|----------------|------------------|
|----------------|---------------------|----------------|------------------|
|----------------|-----------<7>--<5>--|----------------|------------------|
|-5--5-5-5-5-5-7-|-(7)--<7>------------|--------------4-|-(4)--4-4-4-4-4-4-|
|-3--3-3-3-3-3-5-|-(5)-----------------|-2------------2-|-(2)--2-2-2-2-2-2-|
|----------------|---------------------|-0--0-0-0-0-0---|------------------|


  C5           B5                     E5           G5               F5 E5
     PM------|          PM--------|      PM------|          PM----|
  Q  E E E E E E   +Q   E E E E E E   Q  E E E E E E   +Q   E E E E  E E
|----------------|------------------|----------------|-------------------|
|----------------|------------------|----------------|-------------------|
|----------------|------------------|----------------|-------------------|
|-5--5-5-5-5-5-4-|-(4)--4-4-4-4-4-4-|----------------|--------------10-9-|
|-3--3-3-3-3-3-2-|-(2)--2-2-2-2-2-2-|-2------------5-|-(5)-----------8-7-|
|----------------|------------------|-0--0-0-0-0-0-3-|-(3)--3-3-3-3------|


  E5                              E5         D5    E5               C5    D5
  +W           +H.      +Q        Q  E E E E S +S  E   +Q   E E E E S +S  E
|------------|----------------||---------------------|------------------------|
|------------|----------------||o--------------------|------------------------|
|------------|----------------||---------------------|------------------------|
|-(9)--------|-(9)------(9)\--||--2----------7-(7)s9-|-(9)----------5-(5)s7---|
|-(7)--------|-(7)------(7)\--||o-2----------5-(5)s7-|-(7)----------3-(3)s5---|
|------------|----------------||--0--0-0-0-0---------|------0-0-0-0-----------|


                                           Chorus II
                       D.S. al Coda      &
       N.C.                                 E5           B5
                             PM----|           PM------|          PM--------|
  +Q   E E E E E E   +Q   Q  E E E E        Q  E E E E E E   +Q   E E E E E E
|------------------|------------------||-||----------------|------------------|
|------------------|-----------------o||-||----------------|------------------|
|------------------|------------------||-||----------------|------------------|
|-(7)--------------|------------------||-||--------------4-|-(4)--4-4-4-4-4-4-|
|-(5)----------0-2-|-(2)-------------o||-||-2------------2-|-(2)--2-2-2-2-2-2-|
|------0-0-0-0-----|------3--2-5-3-2--||-||-0--0-0-0-0-0---|------------------|


  C5           B5                     E5           B5
     PM------|          PM--------|      PM------|          PM--------|
  Q  E E E E E E   +Q   E E E E E E   Q  E E E E E E   +Q   E E E E E E
|----------------|------------------|----------------|------------------|
|----------------|------------------|----------------|------------------|
|----------------|------------------|----------------|------------------|
|-5--5-5-5-5-5-4-|-(4)--4-4-4-4-4-4-|--------------4-|-(4)--4-4-4-4-4-4-|
|-3--3-3-3-3-3-2-|-(2)--2-2-2-2-2-2-|-2------------2-|-(2)--2-2-2-2-2-2-|
|----------------|------------------|-0--0-0-0-0-0---|------------------|


  C5           D5       N.C.             E5           B5
     PM------|                              PM------|          PM--------|
  Q  E E E E E E   +Q    Q    Q    Q     Q  E E E E E E   +Q   E E E E E E
|----------------|---------------------|----------------|------------------|
|----------------|---------------------|----------------|------------------|
|----------------|-----------<7>--<5>--|----------------|------------------|
|-5--5-5-5-5-5-7-|-(7)--<7>------------|--------------4-|-(4)--4-4-4-4-4-4-|
|-3--3-3-3-3-3-5-|-(5)-----------------|-2------------2-|-(2)--2-2-2-2-2-2-|
|----------------|---------------------|-0--0-0-0-0-0---|------------------|


  C5           B5                     E5           G5               F5 E5
     PM------|          PM--------|      PM------|          PM----|
  Q  E E E E E E   +Q   E E E E E E   Q  E E E E E E   +Q   E E E E  E E
|----------------|------------------|----------------|-------------------|
|----------------|------------------|----------------|-------------------|
|----------------|------------------|----------------|-------------------|
|-5--5-5-5-5-5-4-|-(4)--4-4-4-4-4-4-|----------------|--------------10-9-|
|-3--3-3-3-3-3-2-|-(2)--2-2-2-2-2-2-|-2------------5-|-(5)-----------8-7-|
|----------------|------------------|-0--0-0-0-0-0-3-|-(3)--3-3-3-3------|


  E5
  +W           +W           +W           +H.                Q
|------------|------------|------------|------------------------||
|------------|------------|------------|------------------------||
|------------|------------|------------|------------------------||
|-(9)--------|-(9)--------|-(9)--------|-(9)--------------------||
|-(7)--------|-(7)--------|-(7)--------|-(7)----------------7\--||
|------------|------------|------------|------------------------||
|
| Gtr III
|  W            W            W            Q   E  S  +S   q  Q
|------------|------------|------------|--------11-(11)s23------||
|------------|------------|------------|------------------------||
|------------|------------|------------|------------------------||
|------------|------------|------------|------------------------||
|------------|------------|------------|------------------------||
|------------|------------|------------|------------------------||


 Guitar Solo
  E5                             D5        E5
  Gtr III
   |--3--|  |---3---|  |---3---|  |-----3-----|
   E  E  E  E  E    E  E  E    E  E      E    E
|-24-24-24-24-21---19-24-24---24-24-----21---19-|
|-----------------------------------------------|
|-----------------------------------------------|
|-----------------------------------------------|
|-----------------------------------------------|
|-----------------------------------------------|
|
| Gtrs I, II
|  Q        E    E     E    E     S +S     E
|-----------------------------------------------|
|-----------------------------------------------|
|-----------------------------------------------|
|--2------------------------------7-(7)s===9----|
|--2------------------------------5-(5)s===7----|
|--0--------0----0-----0----0-------------------|


                                  C5        D5               N.C.
   |--3---|  |---3---|  |---3---|  |-----3-----|    |--3---|  |---3---|  |---3---|  |---3---|
   E   E  E  E  E    E  E  E    E  E      E    E    E   E  E  E  E    E  E  E    E  E  E    E
|-24--24-24-24-21---19-24-24---24-24-----21---19-|-22--21-19-24-21---19-22-21---19-24-21---19--|
|------------------------------------------------|---------------------------------------------|
|------------------------------------------------|---------------------------------------------|
|------------------------------------------------|---------------------------------------------|
|------------------------------------------------|---------------------------------------------|
|------------------------------------------------|---------------------------------------------|
|
| +Q         E    E     E    E     S +S     E      +Q         E    E     E    E     E    E
|------------------------------------------------|---------------------------------------------|
|------------------------------------------------|---------------------------------------------|
|------------------------------------------------|---------------------------------------------|
|-(9)------------------------------5-(5)s===7----|-(7)-----------------------------------------|
|-(7)------------------------------3-(3)s===5----|-(5)------------------------------0----2-----|
|------------0----0-----0----0-------------------|------------0----0-----0----0----------------|


                                             E5                             D5        E5
   |--3---|  |--3--|  |---3---|  |---3---|    |--3--|  |---3---|  |---3---|  |-----3-----|
   E   E  E  E  E  E  E  E    E  E  E    E    E  E  E  E  E    E  E  E    E  E      E    E
|-22--21-19-24-21-19-22-21---19-24-21---19-|-17-15-15-17-15---15-18-15---15-17-----15---15-|
|------------------------------------------|-----------------------------------------------|
|------------------------------------------|-----------------------------------------------|
|------------------------------------------|-----------------------------------------------|
|------------------------------------------|-----------------------------------------------|
|------------------------------------------|-----------------------------------------------|
|
|                     PM--------------|
| +Q         Q        E    E     E    E       Q        E    E     E    E     S +S     E
|------------------------------------------|-----------------------------------------------|
|------------------------------------------|-----------------------------------------------|
|------------------------------------------|-----------------------------------------------|
|------------------------------------------|--2------------------------------7-(7)s===9----|
|-(2)--------------------------------------|--2------------------------------5-(5)s===7----|
|------------3--------2----5-----3----2----|--0--------0----0-----0----0-------------------|


                                  C5        D5
   |--3---|  |---3---|  |---3---|  |-----3-----|
   E   E  E  E  E    E  E  E    E  E      E    E
|-17--15-15-20-15---15-17-15---15-17-----15---15---|
|--------------------------------------------------|
|--------------------------------------------------|
|--------------------------------------------------|
|--------------------------------------------------|
|--------------------------------------------------|
|
| +Q         E    E     E    E     S +S     E
|--------------------------------------------------|
|--------------------------------------------------|
|--------------------------------------------------|
|-(9)------------------------------5-(5)s===7------|
|-(7)------------------------------3-(3)s===5------|
|------------0----0-----0----0---------------------|


            N.C.
   |--3---|  |---3---|  |---3---|  |---3---|
   E   E  E  E  E    E  E  E    E  E  E    E    S   S  S  S  S  S  S  S  Q       Q
|-18--15-15-17-15---15-17-15---15-20-15---15-|-18--18-17-15--------------------------|
|--------------------------------------------|--------------18-18-17-15-18b20r==18---|
|--------------------------------------------|---------------------------------------|
|--------------------------------------------|---------------------------------------|
|--------------------------------------------|---------------------------------------|
|--------------------------------------------|---------------------------------------|
|
|                                                                        PM--------|
| +Q         E    E     E    E     E    E      +Q            Q           E    E  E E
|--------------------------------------------|---------------------------------------|
|--------------------------------------------|---------------------------------------|
|--------------------------------------------|---------------------------------------|
|-(7)----------------------------------------|---------------------------------------|
|-(5)------------------------------0----2----|-(2)-----------------------------------|
|------------0----0-----0----0---------------|---------------3-----------2----5--3-2-|


  E5                             D5        E5
   |--3--|  |---3---|  |---3---|  |-----3-----|
   E  E  E  E  E    E  E  E    E  E      E    E
|-------------------------------------------------|
|-14h15p14h15p14h==15p14h15p==14h15-----17h==18---|
|-------------------------------------------------|
|-------------------------------------------------|
|-------------------------------------------------|
|-------------------------------------------------|
|
|  Q        E    E     E    E     S +S     E
|-------------------------------------------------|
|-------------------------------------------------|
|-------------------------------------------------|
|--2------------------------------7-(7)s===9------|
|--2------------------------------5-(5)s===7------|
|--0--------0----0-----0----0---------------------|


                                  C5        D5
   |--3---|  |---3---|  |---3---|  |-----3-----|
   E   E  E  E  E    E  E  E    E  E      E    E
|----------------------------------------15h==16-|
|-17h=18p17h18p17h==18p17h18p==17h18-------------|
|------------------------------------------------|
|------------------------------------------------|
|------------------------------------------------|
|------------------------------------------------|
|
| +Q         E    E     E    E     S +S     E
|------------------------------------------------|
|------------------------------------------------|
|------------------------------------------------|
|-(9)------------------------------5-(5)s===7----|
|-(7)------------------------------3-(3)s===5----|
|------------0----0-----0----0-------------------|


            N.C.
   |--3---|  |---3---|  |---3---|  |---3---|    |--3---|  |3-|
   E   E  E  E  E    E  E  E    E  E  E    E    E   E  E  E  Q  +E   +Q     E
|-15h=16p15h16p15---16p15h16p==15h16-17h==18p|=17h=18p17h18S22-(22)-(22)\---0---|
|--------------------------------------------|----------------------------------|
|--------------------------------------------|----------------------------------|
|--------------------------------------------|----------------------------------|
|--------------------------------------------|----------------------------------|
|--------------------------------------------|----------------------------------|
|
|                                                                PM---------|
| +Q         E    E     E    E     E    E      +Q         Q      E    E   E E
|--------------------------------------------|----------------------------------|
|--------------------------------------------|----------------------------------|
|--------------------------------------------|----------------------------------|
|-(7)----------------------------------------|----------------------------------|
|-(5)------------------------------0----2----|-(2)------------------------------|
|------------0----0-----0----0---------------|------------3------2----5---3-2---|


  E5                          D5        E5
   |-3--|  |--3---|  |--3---|  |----3-----|
   E  E E  E  E   E  E  E   E  E      E   E
|-22-15-0-22-15---0-22-15---0-22-----15---0-|
|-------------------------------------------|
|-------------------------------------------|
|-------------------------------------------|
|-------------------------------------------|
|-------------------------------------------|
|
|  Q       E    E    E    E    S +S     E
|-------------------------------------------|
|-------------------------------------------|
|-------------------------------------------|
|--2---------------------------7-(7)s===9---|
|--2---------------------------5-(5)s===7---|
|--0-------0----0----0----0-----------------|


                               C5        D5
   |--3--|  |--3---|  |--3---|  |----3-----|
   E   E E  E  E   E  E  E   E  E      E   E
|-22--15-0-22-15---0-22-15---0-22-----15---0-|
|--------------------------------------------|
|--------------------------------------------|
|--------------------------------------------|
|--------------------------------------------|
|--------------------------------------------|
|
| +Q        E    E    E    E    S +S     E
|--------------------------------------------|
|--------------------------------------------|
|--------------------------------------------|
|-(9)---------------------------5-(5)s===7---|
|-(7)---------------------------3-(3)s===5---|
|-----------0----0----0----0-----------------|


            N.C.
   |--3---|  |---3---|  |---3---|
   E   E  E  E  E    E  E  E    E  E  E
|-18--17-15---------------------------------|
|-----------18-17---15-18-17---15-18-18b19==|
|-------------------------------------------|
|-------------------------------------------|
|-------------------------------------------|
|-------------------------------------------|
|
| +Q         E    E     E    E     E  E
|-------------------------------------------|
|-------------------------------------------|
|-------------------------------------------|
|-(7)---------------------------------------|
|-(5)------------------------------0--2-----|
|------------0----0-----0----0--------------|


                                 E5                                   B5
                                  |--3--|  |---3---|  |---3---|  |---3---|
   +E   +E   +E   E  Q.      E    E  E  E  E  E    E  E  E    E  E  E    E
|---------------------------12-|-17-14-12-15-12---12-17-14---12-15-12---12--|
|-(18)-(18)r(18)-15------------|--------------------------------------------|
|-------------------17---------|--------------------------------------------|
|------------------------------|--------------------------------------------|
|------------------------------|--------------------------------------------|
|------------------------------|--------------------------------------------|
|
|                    PM-----|              PM-------------------|
|  +Q         Q      E  E E  E    Q        E    E     E    E     E    E
|------------------------------|--------------------------------------------|
|------------------------------|--------------------------------------------|
|------------------------------|--------------------------------------------|
|------------------------------|--------------------------------------4-----|
|--(2)-------------------------|--2-----------------------------------2-----|
|-------------3------2--5-3--2-|--0--------0----0-----0----0-----0----------|


   |--3---|  |---3---|  |---3---|  |---3---|
   E   E  E  E  E    E  E  E    E  E  E    E
|-17--14-12-15-12---12-17-14---12-15-12---12-|
|--------------------------------------------|
|--------------------------------------------|
|--------------------------------------------|
|--------------------------------------------|
|--------------------------------------------|
|
|            PM-------------------------|
| +Q         E    E     E    E     E    E
|--------------------------------------------|
|--------------------------------------------|
|--------------------------------------------|
|-(4)--------4----4-----4----4-----4----4----|
|-(2)--------2----2-----2----2-----2----2----|
|--------------------------------------------|


  C5                                   B5
   |--3--|  |---3---|  |---3---|  |---3---|    |--3---|  |---3---|  |---3---|  |---3---|
   E  E  E  E  E    E  E  E    E  E  E    E    E   E  E  E  E    E  E  E    E  E  E    E
|-15-14-12-15-14---12-----------------------|--------------------------------------------|
|---------------------15-14---12-15-14---12-|-15--14-12----------------------------------|
|-------------------------------------------|-----------14-12---11-14-12---11------------|
|-------------------------------------------|---------------------------------14-12---11-|
|-------------------------------------------|--------------------------------------------|
|-------------------------------------------|--------------------------------------------|
|
|           PM-------------------|                       PM-------------------------|
|  Q        E    E     E    E     E    E      +Q         E    E     E    E     E    E
|-------------------------------------------|--------------------------------------------|
|-------------------------------------------|--------------------------------------------|
|-------------------------------------------|--------------------------------------------|
|--5--------5----5-----5----5-----5----4----|-(4)--------4----4-----4----4-----4----4----|
|--3--------3----3-----3----3-----3----2----|-(2)--------2----2-----2----2-----2----2----|
|-------------------------------------------|--------------------------------------------|


  E5                       B5
                             ~~~~~~~~~~~~
   Q.        +Q     +Q       E      +W
|-------------------------------|---------------------|
|--------------------------[17]-|-([17])--------------|
|-------------------------------|---------------------|
|-------------------------------|---------------------|
|-12b14=====(12)---(12)r--------|---------------------|
|-------------------------------|---------------------|
|
|         PM-------------|                PM--------|
|  Q      E   E  E   E   E   E      +Q    E E E E E E
|-------------------------------|---------------------|
|-------------------------------|---------------------|
|-------------------------------|---------------------|
|----------------------------4--|---(4)---4-4-4-4-4-4-|
|--2-------------------------2--|---(2)---2-2-2-2-2-2-|
|--0------0---0--0---0---0------|---------------------|


  C5                       D5
   |3-|  |-3--|  |-3--|  |-3--|
   Q  E  Q    E  Q    E  Q    E    +H        +E   +E  Q
|-------------------------------|---------------------------|
|-------------------------------|---------------------------|
|--------------------16------15-|-(15)------(15)-(15)s9/----|
|-------16------15------14------|---------------------------|
|----15------14-----------------|---------------------------|
|-14----------------------------|---------------------------|
|
|        PM-------------|               PM------------|
|  Q     E E     E E     E E       +Q   E E   E    E  E  E
|-------------------------------|---------------------------|
|-------------------------------|---------------------------|
|-------------------------------|---------------------------|
|--5-----5-5-----5-5-----5-7----|--(7)--7-7---7----7--7--7--|
|--3-----3-3-----3-3-----3-5----|--(5)--5-5---5----5--5--5--|
|-------------------------------|---------------------------|


  E5                                           B5
   |-----3------|  |-3--|  |------3-------|  |-3--|
   E      +E    E  Q    E  E      +E      E  Q    E
|---------------------------------------------------|
|--------------14-17p==14----------------15-18p==15-|
|-16b17==(16)r------------17b18==(17)r--------------|
|---------------------------------------------------|
|---------------------------------------------------|
|---------------------------------------------------|
|
|                  PM-----------------------|
|  Q               E E     E           E     E E
|---------------------------------------------------|
|---------------------------------------------------|
|---------------------------------------------------|
|----------------------------------------------4----|
|--2-------------------------------------------2----|
|--0---------------0-0-----0-----------0-----0------|


   |-----3------|        |----3----|  |-3--|
   E      +E    E  E  E  E  +E     E  Q    E
|--------------------------------------------|
|--------------16-19p16-----------17-20p==17-|
|-18b19==(18)r----------19-(19)--------------|
|--------------------------------------------|
|--------------------------------------------|
|--------------------------------------------|
|
|                  PM-------------------|
| +Q               E  E  E      E     E E
|--------------------------------------------|
|--------------------------------------------|
|--------------------------------------------|
|-(4)--------------4--4--4------4-----4-4----|
|-(2)--------------2--2--2------2-----2-2----|
|--------------------------------------------|


  C5                                   B5
   E      +E    Q       +E.    S  S  S  E        +H        +Q.      +E
|-17-----(17)--17-------------------17-20b22==|=(20)------(20)r====(20)-|
|-20b22==(20)r-20b22r==(20)---17h20-----------|-------------------------|
|---------------------------------------------|-------------------------|
|---------------------------------------------|-------------------------|
|---------------------------------------------|-------------------------|
|---------------------------------------------|-------------------------|
|
|               PM---------------|                    PM-----------|
|  Q            E    E   E  E     E     E        +Q   E E   E  E E   E
|---------------------------------------------|-------------------------|
|---------------------------------------------|-------------------------|
|---------------------------------------------|-------------------------|
|--5------------5----5---5--5-----5-----4-----|--(4)--4-4---4--4-4---4--|
|--3------------3----3---3--3-----3-----2-----|--(2)--2-2---2--2-2---2--|
|---------------------------------------------|-------------------------|


  E5                                              G5
   |-----3------|  |3-|    |------3-------|  |3-|
   E      +E    E  E  Q    E      +E      E  E  Q
|--------------19------------------------19---------|
|-----------------22p19---------------------22p19---|
|-21b23==(21)r------------21b23==(21)r--------------|
|---------------------------------------------------|
|---------------------------------------------------|
|---------------------------------------------------|
|
|                  PM-----------------------|
|  Q               E    E  E           E     E    E
|---------------------------------------------------|
|---------------------------------------------------|
|---------------------------------------------------|
|---------------------------------------------------|
|--2----------------------------------------------5-|
|--0---------------0----0--0-----------0-----0----3-|


  G5                                     F5 E5
   |---3----|  |-------3-------|
   E     E  E  E     E        +E   +Q.       +E
|----------19-22b24-22b24====(22)-(22)------(22)r\-|
|-------19-----------------------------------------|
|-21b23--------------------------------------------|
|--------------------------------------------------|
|--------------------------------------------------|
|--------------------------------------------------|
|
|              PM----------------------|
| +Q           E           E        E  E  E   E
|--------------------------------------------------|
|--------------------------------------------------|
|--------------------------------------------------|
|----------------------------------------10---9----|
|-(5)-------------------------------------8---7----|
|-(3)----------3-----------3--------3--3-----------|


  N.C.
   T        T        T        T        T        T        T        T
   |------6-------|  |------6-------|  |------6-------|  |------6-------|
   S  S  S  S  S  S  S  S  S  S  S  S  S  S  S  S  S  S  S  S  S  S  S  S
|-------------------------------------------------------------------------|
|-17p15p12-17p15p12-18p16p13-18p16p13-19p17p14-19p17p14-20p18p15-20p18p15-|
|-------------------------------------------------------------------------|
|-------------------------------------------------------------------------|
|-------------------------------------------------------------------------|
|-------------------------------------------------------------------------|
|
|  W
|-------------------------------------------------------------------------|
|-------------------------------------------------------------------------|
|-------------------------------------------------------------------------|
|-------------------------------------------------------------------------|
|-------------------------------------------------------------------------|
|-------------------------------------------------------------------------|


  N.C.
   T        T        T  T     T  T     T        T
   |--------7--------|  |--------7--------|              |3-|
   S  S  S  S  S  S  S  S  S  S  S  S  S  S  T  T  T  T  Q  E  E
|----------------------------------------------------------------|
|-21p19p16-21p19p16-22p20p17-22p20p17-23p21p18-23p21p18-24s28p19-|
|----------------------------------------------------------------|
|----------------------------------------------------------------|
|----------------------------------------------------------------|
|----------------------------------------------------------------|
|
|  W
|----------------------------------------------------------------|
|----------------------------------------------------------------|
|----------------------------------------------------------------|
|----------------------------------------------------------------|
|----------------------------------------------------------------|
|----------------------------------------------------------------|


  E5
   |--3--|  |--3---|  |--3--|  |--3--|
   E  E  E  E   E  E  E  E  E  E  E  E
|-24-21-19-22--21-19-24-21-19-22-21-19--|
|---------------------------------------|
|---------------------------------------|
|---------------------------------------|
|---------------------------------------|
|---------------------------------------|
|
|  Q        H.
|---------------------------------------|
|---------------------------------------|
|---------------------------------------|
|---------------------------------------|
|--2------------------------------------|
|--0------------------------------------|


  N.C.
   |--3--|  |--3--|
   E  E  E  E  E  E  S  +S   Q.
|---------------------------------|
|-22-21-19-21-19-17---------------|
|-------------------21-(21)s14/---|
|---------------------------------|
|---------------------------------|
|---------------------------------|
|
|  W
|---------------------------------|
|---------------------------------|
|---------------------------------|
|---------------------------------|
|---------------------------------|
|---------------------------------|


  E5                             N.C.
   |-3-|  |-3--|  |-3-|  |-3-|    |-3-|  |-3-| |-3-| |-3-|
   E E E  E  E E  E E E  E E E    E E E  E E E E E E E E E
|-19-0-0-17--0-0-15-0-0-13-0-0-|-12-0-0-10-0-0-8-0-0-7-0-0---||
|------------------------------|-----------------------------||
|------------------------------|-----------------------------||
|------------------------------|-----------------------------||
|------------------------------|-----------------------------||
|------------------------------|-----------------------------||
|
|  Q      H.                      W
|------------------------------|-----------------------------||
|------------------------------|-----------------------------||
|------------------------------|-----------------------------||
|------------------------------|-----------------------------||
|--2---------------------------|-----------------------------||
|--0---------------------------|-----------------------------||


  N.C.
        ~~~~~~~~~~~~~~~~~~~~~~~~~~~~~~~~
   Q   +H.             +W
|--------------------|-----------------|
|--------------------|-----------------|
|-/9---(9)-----------|-(9)-------------|
|--------------------|-----------------|
|--------------------|-----------------|
|--------------------|-----------------|
|
|  E E  E  E E E E E    E  E E E Q  Q
|--------------------|-----------------|
|--------------------|-----------------|
|--------------------|-----------------|
|--------------------|-----------------|
|--7-3--0--7-3-0-7-3-|--0--5-3-2----2--|
|--------------------|-----------3-----|


 ~~~~~~~~~~~~~~~~~~~~~~~~~
  +W                  +H        +H
|-------------------|--------------------|
|-------------------|--------------------|
|-(9)---------------|-(9)-------(9)\-----|
|-------------------|--------------------|
|-------------------|--------------------|
|-------------------|--------------------|
|
|  E  E E E E E E E    E  E E E  Q    Q
|-------------------|--------------------|
|-------------------|--------------------|
|-------------------|--------------------|
|-------------------|--------------------|
|--7--3-0-7-3-0-7-3-|--0--5-3-2----------|
|-------------------|------------3----2--|


  N.C.
  Gtrs I, II
  E E E E E E E E   E E E E Q  Q    E E E E E E E E   E E E E Q  Q
|-----------------|---------------|-----------------|---------------||
|-----------------|---------------|-----------------|---------------||
|-----------------|---------------|-----------------|---------------||
|-----------------|---------------|-----------------|---------------||
|-7-3-0-7-3-0-7-3-|-0-5-3-2----2--|-7-3-0-7-3-0-7-3-|-0-5-3-2-------||
|-----------------|---------3-----|-----------------|---------3--2--||


   Verse 3
    E5         D5    E5               C5    D5
    Q  E E E E S +S  E   +Q   E E E E S +S  E
||---------------------|----------------------|
||o--------------------|----------------------|
||---------------------|----------------------|
||--2----------7-(7)s9-|-(9)----------5-(5)s7-|
||o-2----------5-(5)s7-|-(7)----------3-(3)s5-|
||--0--0-0-0-0---------|------0-0-0-0---------|


       N.C.
                             PM----|
  +Q   E E E E E E   +Q   Q  E E E E   4x
|------------------|-------------------||
|------------------|------------------o||
|------------------|-------------------||
|-(7)--------------|-------------------||
|-(5)----------0-2-|-(2)--------------o||
|------0-0-0-0-----|------3--2-5-3-2---||


 Outro Solo
  E5                    D5      E5
  Gtr III
  |-3-| |--3--| |--3--| |----3----|
  E E E E E   E E E   E E     E   E
|-----------------------------------|
|-5p3p0-7p5p==0-5p3p==0-7p====5p==0-|
|-----------------------------------|
|-----------------------------------|
|-----------------------------------|
|-----------------------------------|
|
| Gtrs I, II
| Q     E   E   E   E   S +S    E
|-----------------------------------|
|-----------------------------------|
|-----------------------------------|
|-2---------------------7-(7)s==9---|
|-2---------------------5-(5)s==7---|
|-0-----0---0---0---0---------------|


                          C5      D5            N.C.
   |-3--| |--3--| |--3--| |----3----|    |-3--| |--3--| |--3--|  |--3--|
   E  E E E E   E E E   E E     E   E    E  E E E E   E E E   E  E E   E
|-------------------------------------|-----------------------------------|
|--5p=3p0-7p5p==0-5p3p==0-7p====5p==0-|--5p=3p0-7p5p==0-9p7p==0-10p8p==0--|
|-------------------------------------|-----------------------------------|
|-------------------------------------|-----------------------------------|
|-------------------------------------|-----------------------------------|
|-------------------------------------|-----------------------------------|
|
| +Q      E   E   E   E   S +S    E     +Q      E   E   E   E    E   E
|-------------------------------------|-----------------------------------|
|-------------------------------------|-----------------------------------|
|-------------------------------------|-----------------------------------|
|-(9)---------------------5-(5)s==7---|-(7)-------------------------------|
|-(7)---------------------3-(3)s==5---|-(5)----------------------0---2----|
|---------0---0---0---0---------------|---------0---0---0---0-------------|


  N.C.                                   E5              D5       E5
   |--3--|  |-3--|  |--3---|  |--3---|
   E   E E  E  E E  E  E   E  E  E   E    H.              +E       +E
|--------------------------------------|--------------------------------|
|-12p=10p0-13p11p0-15p13p==0-17p15p==0-|-17b19===========(17)-----(17)r-|
|--------------------------------------|--------------------------------|
|--------------------------------------|--------------------------------|
|--------------------------------------|--------------------------------|
|--------------------------------------|--------------------------------|
|
|                   PM-------------|
| +Q        Q       E    E    E    E      Q      E E E E   S  +S    E
|--------------------------------------|--------------------------------|
|--------------------------------------|--------------------------------|
|--------------------------------------|--------------------------------|
|--------------------------------------|--2----------------7--(7)s==9---|
|-(2)----------------------------------|--2----------------5--(5)s==7---|
|-----------3-------2----5----3----2---|--0------0-0-0-0----------------|


                                     C5        D5
                                      |-----3-----|
   S     +S       +Q     +E   +Q      E      E    E
|-------------------------------------------15h==18---|
|-17b19r(17)b19==(17)---(17)r(17)\---17---------------|
|-----------------------------------------------------|
|-----------------------------------------------------|
|-----------------------------------------------------|
|-----------------------------------------------------|
|
| +Q                  E   E    E   E  S +S     E
|-----------------------------------------------------|
|-----------------------------------------------------|
|-----------------------------------------------------|
|-(9)---------------------------------5-(5)s===7------|
|-(7)---------------------------------3-(3)s===5------|
|---------------------0---0----0---0------------------|


            N.C.
   |--3---|  |---3---|  |---3---|
   E   E  E  E  E    E  E  E    E  E  +E
|-15h=18p15-----------------------------------|
|-----------17p15h==17-15h17p==15-------------|
|---------------------------------17-(17)b19==|
|---------------------------------------------|
|---------------------------------------------|
|---------------------------------------------|
|
| +Q         E    E     E    E     E   E
|---------------------------------------------|
|---------------------------------------------|
|---------------------------------------------|
|-(7)-----------------------------------------|
|-(5)------------------------------0---2------|
|------------0----0-----0----0----------------|


                                  E5                    D5      E5
                                  |-3-| |--3--| |--3--| |----3----|
   +Q    +E   +E      +H          E E E E E   E E E   E E     E   E
|-------------------------------|-----------------------------------|
|-------------------------------|-----------------------------------|
|-(17)r=(17)-(17)b19r(17)-------|-----------------------------------|
|-------------------------------|-2p0-2p0-2p==0-2p0---2p0-----4p==0-|
|-------------------------------|-----------------------------------|
|-------------------------------|-----------------------------------|
|
|                      PM-----|
|  +Q     Q            E  E E E   Q     E   E   E   E   S +S    E
|-------------------------------|-----------------------------------|
|-------------------------------|-----------------------------------|
|-------------------------------|-----------------------------------|
|-------------------------------|-2---------------------7-(7)s==9---|
|--(2)--------------------------|-2---------------------5-(5)s==7---|
|---------3------------2--5-3-2-|-0-----0---0---0---0---------------|


  E5                      C5      D5
   |-3--| |--3--| |--3--| |----3----|
   E  E E E E   E E E   E E     E   E
|-------------------------------------|
|-------------------------------------|
|-------------------------------------|
|--4p=0-4p0-4p==0-4p0---4p0-----5p==0-|
|-------------------------------------|
|-------------------------------------|
|
| +Q      E   E   E   E   S +S    E
|-------------------------------------|
|-------------------------------------|
|-------------------------------------|
|-(9)---------------------5-(5)s==7---|
|-(7)---------------------3-(3)s==5---|
|---------0---0---0---0---------------|


          N.C.
   |-3--| |--3--| |--3--| |--3--|    |-3--| |-3-| |--3--|
   E  E E E E   E E E   E E E   E    E  E E E E E E E   E Q
|---------------------------------|-----------------------------|
|---------------------------------|-----------------------------|
|---------------------------------|-----------------------------|
|--5p=0-5p0-5p==0-5p0---5p0-7p==0-|--7p=0-7p0-7p0-7p0---7p0-----|
|---------------------------------|-----------------------------|
|---------------------------------|-----------------------------|
|
|                                                 PM--------|
| +Q      E   E   E   E   E   E     +Q      Q     E   E   E E
|---------------------------------|-----------------------------|
|---------------------------------|-----------------------------|
|---------------------------------|-----------------------------|
|-(7)-----------------------------|-----------------------------|
|-(5)---------------------0---2---|-(2)-------------------------|
|---------0---0---0---0-----------|---------3-----2---5---3-2---|


  E5            D5    E5                         C5    D5
       ~~~
   Q  +H        Q          Q       +Q     +H
|-----------------------|--------------------------------|
|-----------------------|-16b17===(16)---(16)r-----------|
|-----------------------|-15b16===(15)---(15)r-----------|
|-/9--(9)---------------|--------------------------------|
|-----------------------|--------------------------------|
|-----------------------|--------------------------------|
|
|  Q   E  E E E S +S  E   +Q        E  E   E   E S +S  E
|-----------------------|--------------------------------|
|-----------------------|--------------------------------|
|-----------------------|--------------------------------|
|--2------------7-(7)s9-|-(9)--------------------5-(5)s7-|
|--2------------5-(5)s7-|-(7)--------------------3-(3)s5-|
|--0---0--0-0-0---------|-----------0--0---0---0---------|


            N.C.
   |--3---|  |---3---|  |---3---|  |---3---|
   E   E  E  E  E    E  E  E    E  E  E    E
|--------------------------------------------|
|--------------------------------------------|
|---------------------------------14-15---17-|
|----------------------14-15---17------------|
|-----------13-15---17-----------------------|
|-13--15-17----------------------------------|
|
| +Q         E    E     E    E     E    E
|--------------------------------------------|
|--------------------------------------------|
|--------------------------------------------|
|-(7)----------------------------------------|
|-(5)------------------------------0----2----|
|------------0----0-----0----0---------------|


  N.C.
   |--3---|  |--3--|  |---3---|  |---3---|
   E   E  E  E  E  E  E  E    E  E  E    E
|-----------15-17-18-20-20---20-22-22---22-|
|-15--17-18--------------------------------|
|------------------------------------------|
|------------------------------------------|
|------------------------------------------|
|------------------------------------------|
|
|                     PM--------------|
| +Q         Q        E    E     E    E
|------------------------------------------|
|------------------------------------------|
|------------------------------------------|
|------------------------------------------|
|-(2)--------------------------------------|
|------------3--------2----5-----3----2----|


                    E5
   Q   +E    Q.     Q    +W           +W
|-24--(24)\------------|------------|--------|
|----------------------|------------|--------|
|-------------------4--|-(4)--------|-(4)----|
|-------------------2--|-(2)--------|-(2)----|
|-------------------2--|-(2)--------|-(2)----|
|-------------------0--|-(0)--------|-(0)----|
|
|  Q    E   +E   H        W            W
|----------------------|------------|--------|
|----------------------|------------|--------|
|----------------------|------------|--------|
|----------------------|------------|--------|
|-------7---(7)\-------|------------|--------|
|--0-------------------|------------|--------|


  E5
  +W           +W           Q  H.
|------------|------------|----------*|
|------------|------------|----------*|
|-(4)--------|-(4)--------|----------*|
|-(2)--------|-(2)--------|-9--------*|
|-(2)--------|-(2)--------|-7--------*|
|-(0)--------|-(0)--------|-0--------*|



Duration Legend
---------------
W - whole; H - half; Q - quarter; E - 8th; S - 16th; T - 32nd; X - 64th; a - acciaccatura
+ - note tied to previous; . - note dotted; .. - note double dotted
Uncapitalized letters represent notes that are staccato (1/2 duration)
Irregular groupings are notated above the duration line
Duration letters will always appear directly above the note/fret number it represents the
duration for.  Duration letters with no fret number below them represent rests.  Multi-
bar rests are notated in the form Wxn, where n is the number of bars to rest for.  Low
melody durations appear below the staff

Tablature Legend
----------------
 h   - hammer-on
 p   - pull-off
 b   - bend
 pb  - pre-bend
 r   - bend release (if no number after the r, then release immediately)
 /\  - slide into or out of (from/to "nowhere")
 s   - legato slide
 S   - shift slide
 - natural harmonic
[n]  - artificial harmonic
n(n) - tapped harmonic
 ~   - vibrato
 tr  - trill
 T   - tap
 TP  - trem. picking
 PM  - palm muting
\n/  - tremolo bar dip; n = amount to dip
 \n  - tremolo bar down
 n/  - tremolo bar up
/n\  - tremolo bar inverted dip
 =   - hold bend; also acts as connecting device for hammers/pulls
 <> - volume swell (louder/softer)
 x   - on rhythm slash represents muted slash
 o   - on rhythm slash represents single note slash

Misc Legend
-----------
 |  - bar
||  - double bar
||o - repeat start
o|| - repeat end
*|  - double bar (ending)
 :  - bar (freetime)
 $  - Segno
 &  - Coda
Tempo markers -  = BPM(8/16=s8/s16), where s8 = swing 8ths, s16 = swing 16ths

Related for Tormentor tab