Song name
# A B C D E F G H I J K L M N O P Q R S T U V W X Y Z

Slayer - Expendable Youth tab

#----------------------------------PLEASE NOTE---------------------------------#
#This file is the author's own work and represents their interpretation of the #
#song. You may only use this file for private study, scholarship, or research. #
#------------------------------------------------------------------------------#

EXPENDABLE YOUTH
As recorded by Slayer
(From the 1990 Album SEASONS IN THE ABYSS)

Transcribed by Fenian
	

Words by Tom Araya Music by Kerry King

Gtr I (Eb Ab Db Gb Bb Eb) - 'Untitled'
Gtr II (Eb Ab Db Gb Bb Eb) - 'Untitled'
Gtr III (Eb Ab Db Gb Bb Eb) - 'Untitled'

   Intro
    Q=111
   4/4
    Gtrs I, II
    PM----|     PM----|    PM|     PM----|     PM----|    PM|
    S S S S a E S S S S  E S S E   S S S S a E S S S S  E S S  E
||-------------------------------|-------------------------------|
||o------------------------------|-------------------------------|
||-------------------------------|-------------------------------|
||----------------------10-----8-|---------------------12-----11-|
||o---------5h7----------8-----6-|---------5h7---------10------9-|
||--0-0---0---0-0-0---0----0-0---|-0-0---0---0-0-0---0----0-0----|


  PM----|     PM----|    PM|     PM----|     PM----|   PM|
  S S S S a E S S S S  E S S E   S S S S a E S S S S E S S E  4x
|------------------------------|------------------------------||
|------------------------------|-----------------------------o||
|------------------------------|------------------------------||
|---------------------10-----8-|------------------------------||
|---------5h7----------8-----6-|---------5h7---------5-----4-o||
|-0-0---0---0-0-0---0----0-0---|-0-0---0---0-0-0---0-3-0-0-2--||


    PM----|      PM----|          PM----|      PM----|
    S S S S a Q  S S S S  S S E   S S S S a Q  S S S S  S  S  E
||------------------------------|-------------------------------|
||o-----------------------------|-------------------------------|
||------------------------------|-------------------------------|
||-----------------------10-9-8-|----------------------12-11-10-|
||o---------5h7-----------8-7-6-|---------5h7----------10--9--8-|
||--0---0-0---0--0---0-0--------|-0---0-0---0--0---0-0----------|


  PM----|      PM----|          PM----|      PM----|
  S S S S a Q  S S S S  S S E   S S S S a Q  S S S S S S E
|-----------------------------|-----------------------------||
|-----------------------------|----------------------------o||
|-----------------------------|-----------------------------||
|----------------------10-9-8-|-----------------------------||
|---------5h7-----------8-7-6-|---------5h7----------5-4-3-o||
|-0---0-0---0--0---0-0--------|-0---0-0---0--0-0-0-0-3-2-1--||


   Verse1 & 2
    PM----|      PM----|          PM----|      PM----|
    S S S S a Q  S S S S  S S E   S S S S a Q  S S S S  S  S  E
||------------------------------|-------------------------------|
||o-----------------------------|-------------------------------|
||------------------------------|-------------------------------|
||-----------------------10-9-8-|----------------------12-11-10-|
||o---------5h7-----------8-7-6-|---------5h7----------10--9--8-|
||--0---0-0---0--0---0-0--------|-0---0-0---0--0---0-0----------|


  PM----|      PM----|          PM----|      PM----|
  S S S S a Q  S S S S  S S E   S S S S a Q  S S S S S S E
|-----------------------------|----------------------------|
|-----------------------------|----------------------------|
|-----------------------------|----------------------------|
|----------------------10-9-8-|----------------------------|
|---------5h7-----------8-7-6-|---------5h7----------5-4-3-|
|-0---0-0---0--0---0-0--------|-0---0-0---0--0-0-0-0-3-2-1-|


  PM----|      PM----|          PM----|      PM----|
  S S S S a Q  S S S S  S S E   S S S S a Q  S S S S  S  S  E
|-----------------------------|-------------------------------|
|-----------------------------|-------------------------------|
|-----------------------------|-------------------------------|
|----------------------10-9-8-|----------------------12-11-10-|
|---------5h7-----------8-7-6-|---------5h7----------10--9--8-|
|-0---0-0---0--0---0-0--------|-0---0-0---0--0---0-0----------|


  PM----|      PM----|          PM----|      PM----|
  S S S S a Q  S S S S  S S E   S S S S a Q  S S S S S S E
|-----------------------------|----------------------------||
|-----------------------------|----------------------------||
|-----------------------------|----------------------------||
|----------------------10-9-8-|----------------------------||
|---------5h7-----------8-7-6-|---------5h7----------5-4-3-||
|-0---0-0---0--0---0-0--------|-0---0-0---0--0-0-0-0-3-2-1-||


 Chorus
               PM----------------|   PM|
  H.      Q    S S S S S S S S S S E S S E
|------------|-----------------------------|
|------------|-----------------------------|
|------------|-----------------------------|
|------------|-----------------------------|
|-4-------5--|---------------------5-----5-|
|-2-------3--|-0-0-0-0-0-0-0-0-0-0-3-0-0-3-|


               PM----------------|   PM|
  H.      Q    S S S S S S S S S S E S S E
|------------|-----------------------------|
|------------|-----------------------------|
|------------|-----------------------------|
|---------3--|-----------------------------|
|-4-------1--|---------------------2-----3-|
|-2----------|-0-0-0-0-0-0-0-0-0-0-0-0-0-1-|


               PM----------------|   PM|
  H.      Q    S S S S S S S S S S E S S E
|------------|-----------------------------|
|------------|-----------------------------|
|------------|-----------------------------|
|------------|-----------------------------|
|-4-------5--|---------------------5-----5-|
|-2-------3--|-0-0-0-0-0-0-0-0-0-0-3-0-0-3-|


  1.
                 PM----|     PM----|    PM|     PM----|     PM----|    PM|
  H    Q  E E    S S S S a E S S S S  E S S E   S S S S a E S S S S  E S S  E
|-------------||------------------------------|--------------------------------|
|-------------||------------------------------|--------------------------------|
|-------------||------------------------------|--------------------------------|
|-------------||---------------------10-----8-|---------------------12-----11--|
|-4----7--6-5-||---------5h7----------8-----6-|---------5h7---------10------9--|
|-2----5--4-3-||-0-0---0---0-0-0---0----0-0---|-0-0---0---0-0-0---0----0-0-----|


  PM----|     PM----|    PM|     PM----|     PM----|   PM|
  S S S S a E S S S S  E S S E   S S S S a E S S S S E S S E
|------------------------------|-----------------------------|
|------------------------------|-----------------------------|
|------------------------------|-----------------------------|
|---------------------10-----8-|-----------------------------|
|---------5h7----------8-----6-|---------5h7---------5-----4-|
|-0-0---0---0-0-0---0----0-0---|-0-0---0---0-0-0---0-3-0-0-2-|


  PM----|     PM----|    PM|     PM----|     PM----|    PM|
  S S S S a E S S S S  E S S E   S S S S a E S S S S  E S S  E
|------------------------------|-------------------------------|
|------------------------------|-------------------------------|
|------------------------------|-------------------------------|
|---------------------10-----8-|---------------------12-----11-|
|---------5h7----------8-----6-|---------5h7---------10------9-|
|-0-0---0---0-0-0---0----0-0---|-0-0---0---0-0-0---0----0-0----|


  PM----|     PM----|    PM|     PM----|     PM----|   PM|
  S S S S a E S S S S  E S S E   S S S S a E S S S S E S S E
|------------------------------|------------------------------||
|------------------------------|-----------------------------o||
|------------------------------|------------------------------||
|---------------------10-----8-|------------------------------||
|---------5h7----------8-----6-|---------5h7---------5-----4-o||
|-0-0---0---0-0-0---0----0-0---|-0-0---0---0-0-0---0-3-0-0-2--||


  2.
                       PM|          PM|
  H.      S E.     S S S S S E. S S S S S S  E
|--------------||------------------------------|
|--------------||o-----------------------------|
|--------------||------------------------------|
|--------------||------------------------------|
|-4-------5-7--||o---------7-8----------7-8-10-|
|-2-------3-5--||--0---0-0------0---0-0--------|


      PM|
  S S S S S S E S S S S S S S S
|--------------------------------|
|--------------------------------|
|--------------------------------|
|-------------7-6-5-4------------|
|---------7-8---------6-5--------|
|-0---0-0-----------------8-7-6--|


                               1.
      PM|          PM|              PM|
  S S S S S E. S S S S S S  E   S S S S S S E S S S S S S E
|-----------------------------|------------------------------||
|-----------------------------|-----------------------------o||
|-----------------------------|------------------------------||
|-----------------------------|-------------7-6-5-4-------8--||
|---------7-8----------7-8-10-|---------7-8---------6-5-4---o||
|-0---0-0------0---0-0--------|-0---0-0----------------------||


  2.
      PM|
  S S S S S S E S S S S S S S S
|-------------------------------||
|-------------------------------||
|-------------------------------||
|-------------7-6-5-4-----------||
|---------7-8---------5-4-3-----||
|-0---0-0-------------------4-3-||


 Guitar Solo
  Gtr III
                                         /2\
               ~~~~~
   Q           Q           Q             Q
|--------------------------------------------------|
|-21b22-------21b22-------21b22---------21---------|
|-21b23-------21b23-------21b23---------21---------|
|--------------------------------------------------|
|--------------------------------------------------|
|--------------------------------------------------|
|
| Gtrs I, II
|       PM--------------|           PM--------------
|  S    S S S  S    S S S  S     S  S S  S   S S S
|--------------------------------------------------|
|--------------------------------------------------|
|--------------------------------------------------|
|--------------------------------------------------|
|--4-----------------------4----(4)----------------|
|--2----2-2-2--2----2-2-2--0h====2--2-2--2---2-2-2-|


 Guitar Solo
    /2\        /     \0.5______/
                                       ~~~~~~~~~~ PM---|
   +Q          E    +E        +E      +E     +S   S  S  S
|---------------------------------------------------------|
|-(21)--------21---(21)------(21)----(21)---(21)----------|
|-(21)--------21---(21)------(21)-------------------------|
|---------------------------------------------------------|
|---------------------------------------------------------|
|------------------------------------------------12-15-12-|
|
|--------------------------|           PM--------|
|   S   S S S  S S   S     S   S  S    S  S   S   S  E
|---------------------------------------------------------|
|---------------------------------------------------------|
|---------------------------------------------------------|
|----------------------------------------------------3----|
|------------------------------4-(4)-----------------1----|
|---2---2-2-2--2-2---2-----2---0h=2----2--2---2---2-------|


   PM|
               |--------5--------|  |----3----|
   S  S  S  S  S  S    S    S    S  S  S      S  S  S  S      a       +E     S
|------------------------------------------------------------------------------|
|------------------------------------------------------------------------------|
|-----------------------------------------------12h14-14b17r(14)b17==(14)r-----|
|---------------------12h==13h==14-12h13h====14--------------------------------|
|----12-15p12-15p12----------------------------------------------------------x-|
|-15---------------------------------------------------------------------------|
|
|     PM----------------------|                  PM-----------------------------
|  S  S  S  S  S    S    S    S     S     S      S  S  S               S   S S
|------------------------------------------------------------------------------|
|------------------------------------------------------------------------------|
|------------------------------------------------------------------------------|
|------------------------------------------------------------------------------|
|--4--------------------------------4----(4)-----------------------------------|
|--2--2--2--2--2----2----2----2-----0h====2------2--2--2---------------2---2-2-|


                                              /1___\1___/   \2
    Q.                +E           +E         S   +S   +S  +S  +E
|------------------------------------------------------------------|
|------------------------------------------------------------------|
|-[14]b16r==========([14])b17====([14])r\-----0---(0)--(0)-(0)-(0)-|
|------------------------------------------------------------------|
|------------------------------------------------------------------|
|------------------------------------------------------------------|
|
|------------------------------|              PM-----------|
|   S     S S S S S    S       S    S      S  S    S    S   S   E
|------------------------------------------------------------------|
|------------------------------------------------------------------|
|------------------------------------------------------------------|
|------------------------------------------------------------------|
|-----------------------------------4-----(4)-------------------5--|
|---2-----2-2-2-2-2----2-------2----0h=====2--2----2----2---2---3--|


                        |--3--| |------5------|
  S S S S S S S S S  S  S S   S S S   S   S   S
|-----------------------------------------------|
|-----------------------------------------------|
|-----------------------------------------------|
|-----------------------------7-------7h==8h==9-|
|-------2-----5h7-------8h9-----7h9-------------|
|-0h3-5---5h7-----7h10--------------------------|
|
|   PM----------|       PM-----------------------
| S S S S S S S S S  S  S   S   S   S   S   S
|-----------------------------------------------|
|-----------------------------------------------|
|-----------------------------------------------|
|-----------------------------------------------|
|-4---------------4-(4)-------------------------|
|-2-2-2-2-2-2-2-2-0h=2--2---2---2---2---2---2---|


                                 /1\  /1\  /1\  /1\
  |--3--|                                           |-----6-----|
  S S   S S  S       +Q          S   +S   +S   +S   S S   S S S S
|-----------------------------------------------------------------|
|-----------------------------------------------------------------|
|---------7-[9]b11==([9])r-------9---(9)--(9)--(9)----------------|
|-7h8h==9---------------------------------------------------------|
|-----------------------------------------------------------------|
|---------------------------------------------------5h7h==9-5h7h9-|
|
|------------------------------|           PM-----------|
| S   S   S  S        S    S S S S    S    S    S   S   S   E
|-----------------------------------------------------------------|
|-----------------------------------------------------------------|
|-----------------------------------------------------------------|
|-----------------------------------------------------------3-----|
|--------------------------------4---(4)--------------------1-----|
|-2---2---2--2--------2----2-2-2-0h===2----2----2---2---2---------|


  |-------6-------| |------6-------| |---------6---------| |--------6--------|
  S S    S S S    S S S   S S S    S S  S      S S  S    S S  S   S  S  S    S
|------------------------------------------------------------------------------|
|------------------------------------------------------------------------------|
|----------------------------------------------------------9h11p==9S12h14p==12-|
|---------------------------7h9h==11-9h11h====12-9h11h==12---------------------|
|-------------------7h9---9----------------------------------------------------|
|-7h9h==10-7h9h==10------------------------------------------------------------|
|
|     PM------------------------|                PM-----------------------------
| S   S    S   S    S   S   S   S    S     S     S    S    S    S    S    S
|------------------------------------------------------------------------------|
|------------------------------------------------------------------------------|
|------------------------------------------------------------------------------|
|------------------------------------------------------------------------------|
|-4----------------------------------4----(4)----------------------------------|
|-2---2----2---2----2---2---2---2----0h====2-----2----2----2----2----2----2----|


                           /1\
   Q.              +E     +E        +Q.
|--------------------------------------------|
|-15--------------(15)---(15)------(15)------|
|-14b16r==========(14)---(14)------(14)------|
|--------------------------------------------|
|--------------------------------------------|
|--------------------------------------------|
|
|----------------------|             PM-|
|  S    S S S S S   S  S   S    S    S  S Q
|--------------------------------------------|
|--------------------------------------------|
|--------------------------------------------|
|--------------------------------------------|
|--------------------------4---(4)--------5--|
|--2----2-2-2-2-2---2--2---0h===2----2--2-3--|


   /1\              /1\  /1.5\  \1.5
   Q          +E    S   +S     +Q..              S
|--------------------------------------------------|
|--------------------------------------------------|
|-12---------(12)---0---(0)----(0)---------------0s|
|--------------------------------------------------|
|--------------------------------------------------|
|--------------------------------------------------|
|
|  PM-------------------|              PM-----------
|  S   S S S   S  S S    S      S    S S S S S S S
|--------------------------------------------------|
|--------------------------------------------------|
|--------------------------------------------------|
|--------------------------------------------------|
|--------------------------------------------------|
|--5---5-5-5---5--5-5----5------3h===5-5-5-5-5-5-5-|


   \2.5           /1\  /1\  \2.5
   ~~~~~
   Q.             S   +S   +H
|---------------------------------------------|
|---------------------------------------------|
|-17--------------0---(0)--(0)----------------|
|---------------------------------------------|
|---------------------------------------------|
|---------------------------------------------|
|
|---------------------|            PM----|
|  S    S S S S S S    S    S    S S S S S E
|---------------------------------------------|
|---------------------------------------------|
|---------------------------------------------|
|------------------------------------------6--|
|------------------------------------------4--|
|--5----5-5-5-5-5-5----5----3h===5-5-5-5-5----|


  \3/     \5/   \3/     \2______\3____________| \5/         \5/         \3______\5________|
                                    ~~~~~~~~~                                         ~~~~~~
  |---------6---------| |----------7----------| |------------------11:8-------------------|
  S   S   S   S S     S S   S   S   S   S S   S S   S   S   S   S   S   S     S S     S   S
|-------------------------------------------------------------------------------------------|
|-------------------------------------------------------------------------------------------|
|-7p==5p==0h==7p5p====0h7p==5p==0h==7p==5p0h==7p5p==0h==7p==5p==0h==7p==5p====0h7p====5p==0-|
|-------------------------------------------------------------------------------------------|
|-------------------------------------------------------------------------------------------|
|-------------------------------------------------------------------------------------------|
|
| PM----------------------------------------|             PM----------------------------|
| S     S     S     S   S     S       S     S   S     S   S       S   S     S       S   S
|-------------------------------------------------------------------------------------------|
|-------------------------------------------------------------------------------------------|
|-------------------------------------------------------------------------------------------|
|-------------------------------------------------------------------------------------------|
|-------------------------------------------------------------------------------------------|
|-5-----5-----5-----5---5-----5-------5-----5---3h====5---5-------5---5-----5-------5---5---|


  \5___________|          /1\   /1\   /1\   /1\   /1\
       ~~~~~~~~~~~
  S   +E.     +Q          T    +T    +T    +T    +E      +Q
|-----------------------------------------------------------------|
|-----------------------------------------------------------------|
|-0---(0)-----(0)-------/16---(16)--(16)--(16)--(16)----(16)\-----|
|-----------------------------------------------------------------|
|-----------------------------------------------------------------|
|-----------------------------------------------------------------|
|
| PM------------------|                           PM----------|
| S    S  S S  S  S S S   S           S           S   S   S   S E
|-----------------------------------------------------------------|
|-----------------------------------------------------------------|
|-----------------------------------------------------------------|
|-----------------------------------------------------------------|
|---------------------------------------------------------------8-|
|-5----5--5-5--5--5-5-5---3h==========5-----------5---5---5---5-6-|


  \7                \5________________/
  H                 Q..              +S
|------------------------------------------|
|------------------------------------------|
|------------------[5]--------------([5])--|
|------------------------------------------|
|------------------------------------------|
|-0----------------------------------------|
|
| PM-------------|        PM--------|
| S  S S S S S S S  S   S S S S S S   S
|------------------------------------------|
|------------------------------------------|
|------------------------------------------|
|------------------------------------------|
|------------------------------------------|
|-5--5-5-5-5-5-5-5--3h==5-5-5-5-5-5---5----|


                    \2.5
    ~~~~~~~~~~~~~~~~~~~~~
   +E      +E      +Q          H               Q        Q        Q       Q
|--------------------------------------------|------------------------------------|
|--------------------------------------------|-x\----------------x\---------------|
|-([5])---([5])---([5])----------------------|------------------------------------|
|--------------------------------------------|----------x/---------------x/-------|
|--------------------------------------------|----------x/---------------x/-------|
|--------------------------------------------|----------x/---------------x/-------|
|
|   PM-----------------------|     PM----|     PM--------------|     PM------------
|   S   S   S   S   S    S S S S S S S S S E   S  S S S S  S S S S S S S S  S S S
|--------------------------------------------|------------------------------------|
|--------------------------------------------|------------------------------------|
|--------------------------------------------|------------------------------------|
|------------------------------------------6-|------------------------------------|
|------------------------------------------4-|------------------------------------|
|---5---5---5---5---5----5-5-5-3h5-5-5-5-5---|-5--5-5-5-5--5-5-5-3h5-5-5-5--5-5-5-|


                                              ~~~~~~~~~~~
                     |----3-----|
  Q          +E     +S    +S    S   E        +E     +Q
|----------------------------------22b24====(22)---(22)r---||
|----------------------------------------------------------||
|-7b9========(7)r---(7)b9r(7)p==5\-------------------------||
|----------------------------------------------------------||
|----------------------------------------------------------||
|----------------------------------------------------------||
|
|-----------------------------|               PM-|
| S    S S S  S   S  S        S     S     S   S  S   Q
|----------------------------------------------------------||
|----------------------------------------------------------||
|----------------------------------------------------------||
|----------------------------------------------------------||
|----------------------------------------------------8-----||
|-5----5-5-5--5---5--5--------5-----3h====5---5--5---6-----||


 Chorus
  Gtrs I, II
               PM----------------|   PM|
  H.      Q    S S S S S S S S S S E S S E
|------------|-----------------------------|
|------------|-----------------------------|
|------------|-----------------------------|
|------------|-----------------------------|
|-4-------5--|---------------------5-----5-|
|-2-------3--|-0-0-0-0-0-0-0-0-0-0-3-0-0-3-|


               PM----------------|   PM|
  H.      Q    S S S S S S S S S S E S S E
|------------|-----------------------------|
|------------|-----------------------------|
|------------|-----------------------------|
|---------3--|-----------------------------|
|-4-------1--|---------------------2-----3-|
|-2----------|-0-0-0-0-0-0-0-0-0-0-0-0-0-1-|


               PM----------------|   PM|
  H.      Q    S S S S S S S S S S E S S E   H    Q  E E
|------------|-----------------------------|--------------||
|------------|-----------------------------|--------------||
|------------|-----------------------------|--------------||
|------------|-----------------------------|--------------||
|-4-------5--|---------------------5-----5-|-4----7--6-5--||
|-2-------3--|-0-0-0-0-0-0-0-0-0-0-3-0-0-3-|-2----5--4-3--||


 Riff
  PM----|     PM----|    PM|     PM----|     PM----|    PM|
  S S S S a E S S S S  E S S E   S S S S a E S S S S  E S S  E
|------------------------------|-------------------------------|
|------------------------------|-------------------------------|
|------------------------------|-------------------------------|
|---------------------10-----8-|---------------------12-----11-|
|---------5h7----------8-----6-|---------5h7---------10------9-|
|-0-0---0---0-0-0---0----0-0---|-0-0---0---0-0-0---0----0-0----|


  PM----|     PM----|    PM|     PM----|     PM----|   PM|
  S S S S a E S S S S  E S S E   S S S S a E S S S S E S S E
|------------------------------|-----------------------------||
|------------------------------|-----------------------------||
|------------------------------|-----------------------------||
|---------------------10-----8-|-----------------------------||
|---------5h7----------8-----6-|---------5h7---------5-----3-||
|-0-0---0---0-0-0---0----0-0---|-0-0---0---0-0-0---0-3-0-0-1-||


 Out-Chorus
               PM----------------|   PM|
  H.      Q    S S S S S S S S S S E S S E
|------------|-----------------------------|
|------------|-----------------------------|
|------------|-----------------------------|
|------------|-----------------------------|
|-4-------5--|---------------------5-----5-|
|-2-------3--|-0-0-0-0-0-0-0-0-0-0-3-0-0-3-|


               PM----------------|   PM|
  H.      Q    S S S S S S S S S S E S S E
|------------|-----------------------------|
|------------|-----------------------------|
|------------|-----------------------------|
|---------3--|-----------------------------|
|-4-------1--|---------------------2-----3-|
|-2----------|-0-0-0-0-0-0-0-0-0-0-0-0-0-1-|


               PM----------------|   PM|
  H.      Q    S S S S S S S S S S E S S E   E E Q  Q  S E.
|------------|-----------------------------|-----------------||
|------------|-----------------------------|-----------------||
|------------|-----------------------------|-----------------||
|------------|-----------------------------|-----------------||
|-4-------5--|---------------------5-----5-|-4---------5-7---||
|-2-------3--|-0-0-0-0-0-0-0-0-0-0-3-0-0-3-|-2---------3-5---||


   Outro
    Gtrs I, II
        PM|          PM|              PM|
    S S S S S E. S S S S S S  E   S S S S S S E S S S S S S S S
||------------------------------|-------------------------------|
||o-----------------------------|-------------------------------|
||------------------------------|-------------------------------|
||------------------------------|-------------7-6-5-4-----------|
||o---------7-8----------7-8-10-|---------7-8---------6-5-------|
||--0---0-0------0---0-0--------|-0---0-0-----------------8-7-6-|


                               1.
      PM|          PM|              PM|
  S S S S S E. S S S S S S  E   S S S S S S  E  S S S S S S E
|-----------------------------|---------------------------------||
|-----------------------------|--------------------------------o||
|-----------------------------|---------------------------------||
|-----------------------------|-------------[7]-6-5-4-------8---||
|---------7-8----------7-8-10-|---------7-8-----------6-5-4----o||
|-0---0-0------0---0-0--------|-0---0-0-------------------------||


  2.
      PM|
  S S S S S S E S S S S S S S S   S S S S S S S S E E Q
|-------------------------------|-------------------------*|
|-------------------------------|-------------------------*|
|-------------------------------|-------------------------*|
|-------------7-6-5-4-----------|-6-5-4-------------------*|
|---------7-8---------6-5-------|-------5-4-3-----2-------*|
|-0---0-0-----------------8-7-6-|-------------3-2-0-------*|



Duration Legend
---------------
W - whole; H - half; Q - quarter; E - 8th; S - 16th; T - 32nd; X - 64th; a - acciaccatura
+ - note tied to previous; . - note dotted; .. - note double dotted
Uncapitalized letters represent notes that are staccato (1/2 duration)
Irregular groupings are notated above the duration line
Duration letters will always appear directly above the note/fret number it represents the
duration for.  Duration letters with no fret number below them represent rests.  Multi-
bar rests are notated in the form Wxn, where n is the number of bars to rest for.  Low
melody durations appear below the staff

Tablature Legend
----------------
 h   - hammer-on
 p   - pull-off
 b   - bend
 pb  - pre-bend
 r   - bend release (if no number after the r, then release immediately)
 /\  - slide into or out of (from/to "nowhere")
 s   - legato slide
 S   - shift slide
 - natural harmonic
[n]  - artificial harmonic
n(n) - tapped harmonic
 ~   - vibrato
 tr  - trill
 T   - tap
 TP  - trem. picking
 PM  - palm muting
\n/  - tremolo bar dip; n = amount to dip
 \n  - tremolo bar down
 n/  - tremolo bar up
/n\  - tremolo bar inverted dip
 =   - hold bend; also acts as connecting device for hammers/pulls
 <> - volume swell (louder/softer)
 x   - on rhythm slash represents muted slash
 o   - on rhythm slash represents single note slash

Misc Legend
-----------
 |  - bar
||  - double bar
||o - repeat start
o|| - repeat end
*|  - double bar (ending)
 :  - bar (freetime)
 $  - Segno
 &  - Coda
Tempo markers -  = BPM(8/16=s8/s16), where s8 = swing 8ths, s16 = swing 16ths

Tap to rate this tab
 
# A B C D E F G H I J K L M N O P Q R S T U V W X Y Z