Song name
# A B C D E F G H I J K L M N O P Q R S T U V W X Y Z

Slayer - War Ensemble tab

#----------------------------------PLEASE NOTE---------------------------------#
#This file is the author's own work and represents their interpretation of the #
#song. You may only use this file for private study, scholarship, or research. #
#------------------------------------------------------------------------------#

WAR ENSEMBLE
As recorded by Slayer
(From the 1990 Album SEASONS IN THE ABYSS)

Transcribed by Unregistered
	

Words by Tom Araya & Jeff Hanneman Music by Jeff Hanneman

G5
3 5 5 x x x
	
G5(type 2)
3 5 x x x x
	
Bb5
6 8 8 x x x
	
A5
5 7 7 x x x

E5
0 2 x x x x
	
F#5
2 4 x x x x
	
A5(type 2)
5 7 x x x x
	
F5
1 3 x x x x

Ab5
4 6 6 x x x
	
F5(type 2)
1 3 3 x x x
	
F5(type 3)
x 3 3 x x x

Gtr I (Eb Ab Db Gb Bb Eb) - 'Untitled'
Gtr II (Eb Ab Db Gb Bb Eb) - 'Untitled'
Gtr III (Eb Ab Db Gb Bb Eb) - 'Untitled'

 Intro
  Q=220
  G5                                                Bb5A5
 4/4
  Gtr II
  Q       Q       H                 H               Q  Q
  |                                                 |  |
  /                                                 /  /

  Gtr I
  S S S S S S S S S S S S S S S S   S S S S S S S S Q  Q
|---------------------------------|-----------------------|
|---------------------------------|-----------------------|
|---------------------------------|-----------------------|
|---------------------------------|-----------------8--7--|
|---------------------------------|-----------------8--7--|
|-3p1p0-0-0-0-3p1p0-0-0-0-3p1p0-0-|-0-0-3p1p0-0-0-0-6--5--|


  G5
  Q       Q       H               W
  |
  /

                              PM----------------|
  S S S S S S S S S S S S S S E   E E E E E E E E
|-------------------------------|-----------------|
|-------------------------------|-----------------|
|-------------------------------|-----------------|
|-------------------------------|-----------------|
|-------------------------------|-----2-1---------|
|-3p1p0-0-0-0-3p1p0-0-0-0-3p1-0-|-0-3-----0-3-2-1-|


                                                    Bb5A5
  W                                 H               Q  Q
                                                    |  |
                                                    /  /

  S S S S S S S S S S S S S S S S   S S S S S S S S Q  Q
|---------------------------------|-----------------------|
|---------------------------------|-----------------------|
|---------------------------------|-----------------------|
|---------------------------------|-----------------8--7--|
|---------------------------------|-----------------8--7--|
|-3p1p0-0-0-0-3p1p0-0-0-0-3p1p0-0-|-0-0-3p1p0-0-0-0-6--5--|


  W                               H       Q   Q
                                              |
                                              o

                              PM----------------|
  S S S S S S S S S S S S S S E   E E E E E E E E
|-------------------------------|-----------------||
|-------------------------------|-----------------||
|-------------------------------|-----------------||
|-------------------------------|-----------------||
|-------------------------------|-----2-1---------||
|-3p1p0-0-0-0-3p1p0-0-0-0-3p1-0-|-0-3-----0-3-2-1-||


    Gtrs I, II
    S S S S S S S S S S S S S S S S   S S S S S S S S Q  Q
||----------------------------------|-----------------------|
||o---------------------------------|-----------------------|
||----------------------------------|-----------------------|
||----------------------------------|-----------------8--7--|
||o---------------------------------|-----------------8--7--|
||--3p1p0-0-0-0-3p1p0-0-0-0-3p1p0-0-|-0-0-3p1p0-0-0-0-6--5--|


                              PM----------------|
  S S S S S S S S S S S S S S E   E E E E E E E E
|-------------------------------|---------------------||
|-------------------------------|--------------------o||
|-------------------------------|---------------------||
|-------------------------------|---------------------||
|-------------------------------|-----2-1------------o||
|-3p1p0-0-0-0-3p1p0-0-0-0-3p1-0-|-0-3-----0-3-2-1-----||


 Pre-Verse
  Q  E E Q  E E   Q  E E Q  Q     Q  E E Q  E E   Q  E E Q  Q
|---------------|---------------|---------------|---------------|
|---------------|---------------|---------------|---------------|
|---------------|---------------|---------------|---------------|
|---------------|---------------|------5-4----6-|-5----9-8--8\--|
|-2----5-4----6-|-5----9-8--8\--|-2----3-2----4-|-3----7-6--6\--|
|-0--0-3-2--0-4-|-3--0-7-6--6\--|-0--0------0---|----0----------|


  Q  E E Q  E E   Q  E E Q  Q     Q  E E Q  E E   Q  E E Q  Q
|---------------|---------------|---------------|---------------||
|---------------|---------------|---------------|---------------||
|---------------|---------------|---------------|---------------||
|---------------|---------------|------6-5----7-|-6----9-8--8\--||
|-2----5-4----6-|-5----9-8--8\--|-2----4-3----5-|-4----7-6--6\--||
|-0--0-3-2--0-4-|-3--0-7-6--6\--|-0--0------0---|----0----------||


   Verse 1 & 2
      PM--|   PM--|   PM    PM--|   PM--|   PM
    E S S E E S S E E E   E S S E E S S E E E
||----------------------|---------------------|
||o---------------------|---------------------|
||----------------------|---------------------|
||----------------------|---------------------|
||o-3-------3-------3---|-6-------6-------6---|
||----3-3-3---3-3-3---3-|---3-3-3---3-3-3---3-|


    PM--|   PM--|   PM    PM--|   PM--|   PM
  E S S E E S S E E E   E S S E E S S E E E
|---------------------|---------------------|
|---------------------|---------------------|
|---------------------|---------------------|
|---------------------|---------------------|
|-5-------5-------5---|-4-------4-------4---|
|---3-3-3---3-3-3---3-|---3-3-3---3-3-3---3-|


    PM--|   PM--|   PM    PM--|   PM--|   PM
  E S S E E S S E E E   E S S E E S S E E E
|---------------------|---------------------|
|---------------------|---------------------|
|---------------------|---------------------|
|---------------------|---------------------|
|-3-------3-------3---|-6-------6-------6---|
|---3-3-3---3-3-3---3-|---3-3-3---3-3-3---3-|


    PM--|   PM--|   PM    PM--|   PM--|   PM
  E S S E E S S E E E   E S S E E S S E E E
|---------------------|----------------------|
|---------------------|----------------------|
|---------------------|----------------------|
|---------------------|----------------------|
|-5-------5-------5---|-4-------4-------4----|
|---3-3-3---3-3-3---3-|---3-3-3---3-3-3---3--|


    PM--|   PM--|   PM    PM--|   PM--|   PM
  E S S E E S S E E E   E S S E E S S E E E
|---------------------|---------------------|
|---------------------|---------------------|
|---------------------|---------------------|
|---------------------|---------------------|
|-3-------3-------3---|-6-------6-------6---|
|---3-3-3---3-3-3---3-|---3-3-3---3-3-3---3-|


    PM--|   PM--|   PM    PM--|   PM--|   PM
  E S S E E S S E E E   E S S E E S S E E E
|---------------------|----------------------|
|---------------------|----------------------|
|---------------------|----------------------|
|---------------------|----------------------|
|-5-------5-------5---|-4-------4-------4----|
|---3-3-3---3-3-3---3-|---3-3-3---3-3-3---3--|


    PM--|   PM--|   PM    PM--|   PM--|   PM
  E S S E E S S E E E   E S S E E S S E E E
|---------------------|---------------------|
|---------------------|---------------------|
|---------------------|---------------------|
|---------------------|---------------------|
|-3-------3-------3---|-6-------6-------6---|
|---3-3-3---3-3-3---3-|---3-3-3---3-3-3---3-|


                       1.
    PM--|   PM--|   PM    PM--|   PM--|   PM
  E S S E E S S E E E   E S S E E S S E E E
|---------------------|----------------------||
|---------------------|----------------------||
|---------------------|----------------------||
|---------------------|----------------------||
|-5-------5-------5---|-4-------4-------4----||
|---3-3-3---3-3-3---3-|---3-3-3---3-3-3---3--||


  G5                                                Bb5A5
  Gtr II
  Q       Q       H                 H               Q  Q
  |                                                 |  |
  /                                                 /  /

  Gtr I
  S S S S S S S S S S S S S S S S   S S S S S S S S Q  Q
|---------------------------------|-----------------------|
|---------------------------------|-----------------------|
|---------------------------------|-----------------------|
|---------------------------------|-----------------8--7--|
|---------------------------------|-----------------8--7--|
|-3p1p0-0-0-0-3p1p0-0-0-0-3p1p0-0-|-0-0-3p1p0-0-0-0-6--5--|


  W                               W
                              PM----------------|
  S S S S S S S S S S S S S S E   E E E E E E E E
|-------------------------------|-----------------|
|-------------------------------|-----------------|
|-------------------------------|-----------------|
|-------------------------------|-----------------|
|-------------------------------|-----2-1---------|
|-3p1p0-0-0-0-3p1p0-0-0-0-3p1-0-|-0-3-----0-3-2-1-|


                                                    Bb5A5
  W                                 H               Q  Q
                                                    |  |
                                                    /  /

  S S S S S S S S S S S S S S S S   S S S S S S S S Q  Q
|---------------------------------|-----------------------|
|---------------------------------|-----------------------|
|---------------------------------|-----------------------|
|---------------------------------|-----------------8--7--|
|---------------------------------|-----------------8--7--|
|-3p1p0-0-0-0-3p1p0-0-0-0-3p1p0-0-|-0-0-3p1p0-0-0-0-6--5--|


  E5
  Q  Q  Q  Q    Q  Q  Q  Q    Q  Q  Q  Q    Q  Q  H
  |     |       |     |       |     |       |
  /     /       /     /       /     /       /

  Q  Q  Q  Q    Q  Q  Q  Q    Q  Q  Q  Q    Q  Q  H
|-------------|-------------|-------------|-------------||
|-------------|-------------|-------------|------------o||
|-------------|-------------|-------------|-------------||
|-------------|-------------|-------------|-------------||
|-2-----2-----|-2-----2-----|-2-----2-----|-2----------o||
|-0-----0-----|-0-----0-----|-0-----0-----|-0-----------||


  2.
  Gtrs I, II
    PM--|   PM--|   PM
  E S S E E S S E E E
|---------------------||
|---------------------||
|---------------------||
|---------------------||
|-4-------4-------4---||
|---3-3-3---3-3-3---3-||


 Chorus
  $
  Gtrs I, II
  Q  E E Q  E E   Q  E E Q  Q     E E E E E E E E   E E E E E E E E
|---------------|---------------|-----------------|-----------------|
|---------------|---------------|-----------------|-----------------|
|---------------|---------------|-----------------|-----------------|
|---------------|---------------|-----------------|-----------------|
|-2----5-4----6-|-5----9-8--8\--|-2-2-2-2-2-2-2-2-|-2-2-2-2-2-2-2-2-|
|-0--0-3-2--0-4-|-3--0-7-6--6\--|-0-0-0-0-0-0-0-0-|-0-0-0-0-0-0-0-0-|


  Q  E E Q  E E   Q  E E Q  Q     E E E E E E E E   E E E E E E E E
|---------------|---------------|-----------------|-----------------|
|---------------|---------------|-----------------|-----------------|
|---------------|---------------|-----------------|-----------------|
|---------------|---------------|-----------------|-9-9-9-9-9-9-9-9-|
|-2----5-4----6-|-5----9-8--8\--|-2-2-2-2-2-7-7-7-|-7-7-7-7-7-7-7-7-|
|-0--0-3-2--0-4-|-3--0-7-6--6\--|-0-0-0-0-0-0-0-0-|-0-0-0-0-0-0-0-0-|


  Q  E E Q  E E   Q  E E Q  Q     Q  E E Q  E E   Q  E E Q  Q
|---------------|---------------|---------------|---------------|
|---------------|---------------|---------------|---------------|
|---------------|---------------|---------------|---------------|
|---------------|---------------|------5-4----6-|-5----9-8--8\--|
|-2----5-4----6-|-5----9-8--8\--|-2----3-2----4-|-3----7-6--6\--|
|-0--0-3-2--0-4-|-3--0-7-6--6\--|-0--0------0---|----0----------|


                                                     To Coda
  Q  E E Q  E E   Q  E E Q  Q     Q  E E Q  E E   Q  E E Q  Q
|---------------|---------------|---------------|---------------||
|---------------|---------------|---------------|---------------||
|---------------|---------------|---------------|---------------||
|---------------|---------------|------6-5----7-|-6----9-8--8\--||
|-2----5-4----6-|-5----9-8--8\--|-2----4-3----5-|-4----7-6--6\--||
|-0--0-3-2--0-4-|-3--0-7-6--6\--|-0--0------0---|----0----------||


 Guitar Solo I
  Gtr III
    ~~~~~~~~
    H.                            +E    E
|-[17]b19r======================([17])\---|
|---------------------------------------0-|
|---------------------------------------0-|
|-----------------------------------------|
|-----------------------------------------|
|-----------------------------------------|
|
| Gtrs I, II
|         PM--------------------|
|   S     S S S S S S S S S S S    E    E
|-----------------------------------------|
|-----------------------------------------|
|-----------------------------------------|
|-----------------------------------------|
|---4------------------------------4----7-|
|---2-----2-2-2-2-2-2-2-2-2-2-2----2----5-|


                         |-3--|  |---3---|    |--3--|
   E     +E       +E    +E    S  E   E   E    E E   E
|------------------------------------------------------|
|------------------------------------------------------|
|------------------------------------------------------|
|-/7b9r==(7)b9====(7)r==(7)p==5-10p==8p==7-------------|
|--------------------------------------------10p8p==7--|
|------------------------------------------------------|
|
|      PM------------------------------------|
|  S   S  S     S  S  S  S  S    S S   S   S  E   E
|------------------------------------------------------|
|------------------------------------------------------|
|------------------------------------------------------|
|------------------------------------------------------|
|--5------------------------------------------5---2----|
|--3---3--3-----3--3--3--3--3----3-3---3---3--3---0----|


   PM-------------------------------------------
   |---3---|   |---3---|   |---3---|   |--3--|
   E   E   E   E   E   E   E   E   E   E E   E
|----------------------------------------------|
|----------------------------------------------|
|----------------------------------------------|
|----------------------------------------------|
|----------------------------------------------|
|-10p==8p==7---8p==7p==5---8p==6p==5---3h5h==7-|
|
|    PM--------------------------------|
|  S S   S   S S S   S   S S S   S   S E   E
|----------------------------------------------|
|----------------------------------------------|
|----------------------------------------------|
|----------------------------------------------|
|--4-----------------------------------4---7---|
|--2-2---2---2-2-2---2---2-2-2---2---2-2---5---|


 ----------------------------------|
  |---3---|   |---3----|   |---3----|
  E   E   E   E   E    E   E   E    E   Q
|-------------------------------------------------|
|-------------------------------------------------|
|-------------------------------------------------|
|---------------------------------------7---------|
|--------------------------7h==8h==10-------------|
|-5h==6h==8---7h==8h==10--------------------------|
|
|   PM-------------------|   PM---------------|
| S S   S   S S S   S    S S S   S    S S S S S
|-------------------------------------------------|
|-------------------------------------------------|
|-------------------------------------------------|
|-------------------------------------------------|
|-5------------------------3----------------------|
|-3-3---3---3-3-3---3----3-1-1---1----1-1-1-1-1---|


   ~~~~~~
   H.                           +Q
|---------------------------------------|
|-15---------------------------(15)\----|
|-14b16========================(14)r\---|
|---------------------------------------|
|---------------------------------------|
|---------------------------------------|
|
|        PM--------------------|
|  S     S S S S S S S S S S S   E    E
|---------------------------------------|
|---------------------------------------|
|---------------------------------------|
|---------------------------------------|
|--4-----------------------------4----7-|
|--2-----2-2-2-2-2-2-2-2-2-2-2---2----5-|


           ~~~~~~~~~~~~~                 ~~~~~~~~~~~~~
   S      +E.      +E.      +S   S      +E.      +E.    +S
|------------------------------------------------------------|
|-10b12==(10)-----(10)r====(10)s12b14==(12)-----(12)r==(12)\-|
|------------------------------------------------------------|
|------------------------------------------------------------|
|------------------------------------------------------------|
|------------------------------------------------------------|
|
|          PM-----------------------------------|
|  S       S  S S   S  S S   S   S       S  S S   E  E
|------------------------------------------------------------|
|------------------------------------------------------------|
|------------------------------------------------------------|
|------------------------------------------------------------|
|--5----------------------------------------------5--2-------|
|--3-------3--3-3---3--3-3---3---3-------3--3-3---3--0-------|


  ~~~
  Q.            a E      +Q.         +E
|----------------------------------------|
|----------------------------------------|
|-2b4-----------2s4b6====(4)r========(4)-|
|----------------------------------------|
|----------------------------------------|
|----------------------------------------|
|
|     PM---------------------------|
| S   S S S S S   S    S  S  S S S E  E
|----------------------------------------|
|----------------------------------------|
|----------------------------------------|
|----------------------------------------|
|-4--------------------------------4--7--|
|-2---2-2-2-2-2---2----2--2--2-2-2-2--5--|


  \1/      \1/        \1/      \1/
  |---------3---------|        |---3----|
  Q       +Q         +Q       +Q       +H
|----------------------------------------------------|
|----------------------------------------------------|
|-0-------(0)--------(0)------(0)------(0)-----------|
|----------------------------------------------------|
|----------------------------------------------------|
|----------------------------------------------------|
|
|     PM--------------------|      PM--------------|
| S   S S      S S S      S S  S   S S     S S S S S
|----------------------------------------------------|
|----------------------------------------------------|
|----------------------------------------------------|
|----------------------------------------------------|
|-5----------------------------3---------------------|
|-3---3-3------3-3-3------3-3--1---1-1-----1-1-1-1-1-|


  |---3---|   |---3---|   |---3---|   |--3--|
  E   E   E   E   E   E   E   E   E   E E   E
|---------------------------------------------|
|---------------------------------------------|
|-5p==3p==2---5p==3p==2-----------------------|
|-------------------------5p==3p==2---5p3p==2-|
|---------------------------------------------|
|---------------------------------------------|
|
|   PM--------------------------------|
| S S   S   S S S   S   S S S   S   S E   E
|---------------------------------------------|
|---------------------------------------------|
|---------------------------------------------|
|---------------------------------------------|
|-4-----------------------------------4---7---|
|-2-2---2---2-2-2---2---2-2-2---2---2-2---5---|


  |---3---|   |---3---|   |---3---|   |--3--|
  E   E   E   E   E   E   E   E   E   E E   E
|-----------------------------------------------|
|-----------------------------------------------|
|-----------------------------------------------|
|-----------------------------------------------|
|-5p==3p==2---5p==3p==2---5h==7p==5---9p7h==9---|
|-----------------------------------------------|
|
|   PM--------------------------------|
| S S   S   S S S   S   S S S   S   S E   E
|-----------------------------------------------|
|-----------------------------------------------|
|-----------------------------------------------|
|-----------------------------------------------|
|-5-----------------------------------5---2-----|
|-3-3---3---3-3-3---3---3-3-3---3---3-3---0-----|


  PM---------------------------------------------
  |---3---|   |---3---|    |---3----|   |--3--|
  E   E   E   E   E   E    E   E    E   E E   E
|-----------------------------------------------|
|-----------------------------------------------|
|-----------------------------------------------|
|-7-------7---9p==7h==9-------------------------|
|-----9---------------------------------7h9p==7-|
|-------------------------10p==7h==10-----------|
|
|   PM----------------------------------|
| S S   S   S S S   S   S  S S   S    S E   E
|-----------------------------------------------|
|-----------------------------------------------|
|-----------------------------------------------|
|-----------------------------------------------|
|-4-------------------------------------4---7---|
|-2-2---2---2-2-2---2---2--2-2---2----2-2---5---|


 ---------------------|
  |---3---|   |---3---|   |---3---|   |---3---|
  E   E   E   E   E   E   E   E   E   E   E   E
|-------------------------------------------------|
|-------------------------------------------------|
|-------------------------------------7-------7---|
|-------------7-------7---9p==7h==9-------9-------|
|-9p==7h==9-------9-------------------------------|
|-------------------------------------------------|
|
|   PM------------------|   PM------------------|
| S S   S   S S S   S   S S S   S   S S S   S   S
|-------------------------------------------------|
|-------------------------------------------------|
|-------------------------------------------------|
|-------------------------------------------------|
|-5-----------------------3-----------------------|
|-3-3---3---3-3-3---3---3-1-1---1---1-1-1---1---1-|


   Q.             +E        +Q.         +E
|-------------------------------------------|
|-------------------------------------------|
|-/9b11r==========(9)b11====(9)r========(9)-|
|-------------------------------------------|
|-------------------------------------------|
|-------------------------------------------|
|
|       PM----------------------------|
|  S    S S S S S  S      S  S  S S S E  E
|-------------------------------------------|
|-------------------------------------------|
|-------------------------------------------|
|-------------------------------------------|
|--4----------------------------------4--7--|
|--2----2-2-2-2-2--2------2--2--2-2-2-2--5--|


                              ~~~~
  H                   a      +H
|-------------------------------------------|
|-------------------------------------------|
|-9b11r==============(9)b11==(9)r-----------|
|-------------------------------------------|
|-------------------------------------------|
|-------------------------------------------|
|
|      PM-------------------------------|
| S    S S S S S S S          S   S S S E E
|-------------------------------------------|
|-------------------------------------------|
|-------------------------------------------|
|-------------------------------------------|
|-5-------------------------------------5-2-|
|-3----3-3-3-3-3-3-3----------3---3-3-3-3-0-|


    Q..               +S    Q..             +S
|------------------------------------------------|
|-------------------------/10b12r==========(10)\-|
|-/10b12r============(10)------------------------|
|------------------------------------------------|
|------------------------------------------------|
|------------------------------------------------|
|
|        PM----------------------------|
|   S    S S S S S S   S    S    S S S E E
|------------------------------------------------|
|------------------------------------------------|
|------------------------------------------------|
|------------------------------------------------|
|---4----------------------------------4-7-------|
|---2----2-2-2-2-2-2---2----2----2-2-2-2-5-------|


                       D.S. al Coda
    E.    +S   Q    E.      +S   Q
|-----------------------------------||
|-/13b15r(13)\----/15b17.5r(15)\----||
|-----------------------------------||
|-----------------------------------||
|-----------------------------------||
|-----------------------------------||
|
|   Q          Q    Q            Q
|-----------------------------------||
|-----------------------------------||
|-----------------------------------||
|-----------------------------------||
|---5---------------3---------------||
|---3---------------1---------------||


  &
  Gtrs I, II
  Q  Q  H      W
|------------|------||
|------------|------||
|------------|------||
|------------|------||
|-2----------|------||
|-0----------|------||


    Q=196
    $$
    PM    PM----------------|          PM    PM----------------|
    E E E E E E E E   E E E E E E Q    E E E E E E E E   E E E E E E Q
||------------------|----------------|-----------------|-----------------|
||o-----------------|----------------|-----------------|-----------------|
||------------------|----------------|-----------------|-----------------|
||----8-7-----------|---------5-7-8--|---8-7-----------|---------5-8-6---|
||o---8-7---6-5---8-|-7---7-6-5-7-8--|---8-7---6-5---8-|-7---7-6-5-8-6---|
||--0-----0-6-5-0-8-|-7-0-7-6-3-5-6--|-0-----0-6-5-0-8-|-7-0-7-6-3-6-4---|


  PM    PM----------------|          PM    PM----------------|
  E E E E E E E E   E E E E E E Q    E E E E E E E E   E E E E E E E E
|-----------------|----------------|-----------------|------------------||
|-----------------|----------------|-----------------|-----------------o||
|-----------------|----------------|-----------------|------------------||
|---8-7-----------|---------8-6-5--|---8-7-----------|---------3---3----||
|---8-7---6-5---8-|-7---7-6-8-6-5--|---8-7---6-5---8-|-7---7-6-3---3---o||
|-0-----0-6-5-0-8-|-7-0-7-6-6-4-3--|-0-----0-6-5-0-8-|-7-0-7-6-1---1----||


 Verse 3 & 4
  Gtrs I, II
  PM----------------------|                  PM----|
  E E E E E E E E   E E E E Q  Q    Q  +Q    E E E E
|-----------------|---------------|------------------|
|-----------------|---------------|------------------|
|-----------------|---------------|------------------|
|-----------------|---------5--7--|-8--(8)\----------|
|-2-2-2-2-2-2-2-2-|-2-2-2-2-5--7--|-8--(8)\--2-2-2-2-|
|-0-0-0-0-0-0-0-0-|-0-0-0-0-3--5--|-6--(6)\--0-0-0-0-|


  PM----|                  PM--------------|                  PM----|
  E E E E Q  Q    Q  +Q    E E E E   E E E E Q  Q    Q  +Q    E E E E
|---------------|------------------|---------------|------------------|
|---------------|------------------|---------------|------------------|
|---------------|------------------|---------------|------------------|
|---------5--8--|-6--(6)\----------|---------8--6--|-5--(5)\----------|
|-2-2-2-2-5--8--|-6--(6)\--2-2-2-2-|-2-2-2-2-8--6--|-5--(5)\--2-2-2-2-|
|-0-0-0-0-3--6--|-4--(4)\--0-0-0-0-|-0-0-0-0-6--4--|-3--(3)\--0-0-0-0-|


  PM----|              PM--------------|                  PM----|
  E E E E Q  Q    H    E E E E   E E E E Q  Q    Q  +Q    E E E E
|---------------|--------------|---------------|------------------|
|---------------|--------------|---------------|------------------|
|---------------|--------------|---------------|------------------|
|---------------|--------------|---------5--7--|-8--(8)\----------|
|-2-2-2-2-3--3--|-3----2-2-2-2-|-2-2-2-2-5--7--|-8--(8)\--2-2-2-2-|
|-0-0-0-0-1--1--|-1----0-0-0-0-|-0-0-0-0-3--5--|-6--(6)\--0-0-0-0-|


                     To Dbl. Coda
  PM----|                  PM--------------|                  PM----|
  E E E E Q  Q    Q  +Q    E E E E   E E E E Q  Q    Q  +Q    E E E E
|---------------|------------------|---------------|------------------|
|---------------|------------------|---------------|------------------|
|---------------|------------------|---------------|------------------|
|---------5--8--|-6--(6)\----------|---------8--6--|-5--(5)\----------|
|-2-2-2-2-5--8--|-6--(6)\--2-2-2-2-|-2-2-2-2-8--6--|-5--(5)\--2-2-2-2-|
|-0-0-0-0-3--6--|-4--(4)\--0-0-0-0-|-0-0-0-0-6--4--|-3--(3)\--0-0-0-0-|


   D.S.S. al Dbl. Coda
                   2/4
  PM----|
  E E E E E E E E   H
|-----------------|------||
|-----------------|------||
|-----------------|------||
|-----------------|------||
|-2-2-2-2-3---3---|------||
|-0-0-0-0-1---1---|------||


  &&
 4/4
  Gtrs I, II
  PM----|                  PM--------------|
  E E E E Q  Q    Q  +Q    E E E E   E E E E E E E E
|---------------|------------------|------------------||
|---------------|------------------|------------------||
|---------------|------------------|------------------||
|---------8--6--|-5--(5)\----------|------------------||
|-2-2-2-2-8--6--|-5--(5)\--2-2-2-2-|-2-2-2-2-3---3----||
|-0-0-0-0-6--4--|-3--(3)\--0-0-0-0-|-0-0-0-0-1---1----||


  Q=220
  E E E E E E E E   E E E E E E E E   E E E E E E E E   E E E E E E E E
|-----------------|-----------------|-----------------|-----------------|
|-----------------|-----------------|-----------------|-----------------|
|-----------------|-----------------|-----------------|-----------------|
|-----------------|-----------------|-----------------|-----------------|
|-2---2---2---2---|-2---2---2---2---|-2---2---2---2---|-2---2---2---2---|
|-0---0---0---0---|-0---0---0---0---|-0---0---0---0---|-0---0---0---0---|


  E E E E E E E E   E E E E E E E E   E E E E E E E E   E E E E E E E E
|-----------------|-----------------|-----------------|-----------------||
|-----------------|-----------------|-----------------|-----------------||
|-----------------|-----------------|-----------------|-----------------||
|-----------------|-----------------|-----------------|-----------------||
|-2---2---2---2---|-2---2---2---2---|-2---2---2---2---|-2---2---2---2---||
|-0---0---0---0---|-0---0---0---0---|-0---0---0---0---|-0---0---0---0---||


 Guitar Solo II
  Gtr III
        T   T           T   T             T   T           T   T
  S S S S S S S S S S S S S S S S   S S S S S S S S S S S S S S S S
|---------------------------------|----------------------------------|
|---------------------------------|----------------------------------|
|---------------------------------|----------------------------------|
|---------------------------------|----------------------------------|
|---------------------------------|----------------------------------|
|-0h4h5-8p5-8p5p4p0h4h5-8p5-8p5p4p|=0h4h5-8p5-8p5p4p0h4h5-8p5-8p5p4p=|
|
| Gtrs I, II
| E   E   E   E   E   E   E   E     E   E   E   E   E   E   E   E
|---------------------------------|----------------------------------|
|---------------------------------|----------------------------------|
|---------------------------------|----------------------------------|
|---------------------------------|----------------------------------|
|-2-------2-------2-------2-------|-2-------2-------2-------2--------|
|-0-------0-------0-------0-------|-0-------0-------0-------0--------|


        T   T           T   T             T   T           T   T
  S S S S S S S S S S S S S S S S   S S S S S S S S S S S S S S S S
|---------------------------------|----------------------------------|
|---------------------------------|----------------------------------|
|---------------------------------|----------------------------------|
|---------------------------------|----------------------------------|
|---------------------------------|----------------------------------|
|-0h3h5-7p5-7p5p3p0h3h5-7p5-7p5p3p|=0h3h5-7p5-7p5p3p0h4h5-8p5-8p5p4p=|
|
| E   E   E   E   E   E   E   E     E   E   E   E   E   E   E   E
|---------------------------------|----------------------------------|
|---------------------------------|----------------------------------|
|---------------------------------|----------------------------------|
|---------------------------------|----------------------------------|
|-2-------2-------2-------2-------|-2-------2-------2-------2--------|
|-0-------0-------0-------0-------|-0-------0-------0-------0--------|


         T    T            T    T              T    T            T    T
  S S S  S S  S S S S S S  S S  S S S   S S S  S S  S S S S S S  S S  S S S
|-------------------------------------|--------------------------------------|
|-------------------------------------|--------------------------------------|
|-------------------------------------|--------------------------------------|
|-------------------------------------|--------------------------------------|
|-------------------------------------|--------------------------------------|
|-0h4h7-10p7-10p7p4p0h4h7-10p7-10p7p4p|=0h4h7-10p7-10p7p4p0h5h8-10p8-10p8p5p=|
|
| E   E    E    E   E   E    E    E     E   E    E    E   E   E    E    E
|-------------------------------------|--------------------------------------|
|-------------------------------------|--------------------------------------|
|-------------------------------------|--------------------------------------|
|-------------------------------------|--------------------------------------|
|-2--------2--------2--------2--------|-2--------2--------2--------2---------|
|-0--------0--------0--------0--------|-0--------0--------0--------0---------|


          T     T              T     T
  S S  S  S  S  S  S S S S  S  S  S  S  S S
|-------------------------------------------|
|-------------------------------------------|
|-------------------------------------------|
|-------------------------------------------|
|-------------------------------------------|
|-0h7h10-13p10-13p10p7p0h7h10-13p10-13p10p7p|
|
| E    E     E     E   E    E     E     E
|-------------------------------------------|
|-------------------------------------------|
|-------------------------------------------|
|-------------------------------------------|
|-2----------2---------2----------2---------|
|-0----------0---------0----------0---------|


          T          T         T
  S S  S  S S  S  S  S S S  S  S S S  S S
|------------------------------------------|
|------------------------------------------|
|------------------------------------------|
|-----------------------------15p0h9h12p9\-|
|-------------------15p0h8h11--------------|
|-0h7h10-16p0h10h13------------------------|
|
| E    E    E     E    E    E    E    E
|------------------------------------------|
|------------------------------------------|
|------------------------------------------|
|------------------------------------------|
|-2---------2----------2---------2---------|
|-0---------0----------0---------0---------|


    ~~~~~~~~~~~~~~~~~~~~~~~~~~~~~~~~~~
                                   |--3---|
    W                +H.          +E   E  E
|-----------------|-------------------------|
|-----------------|-------------------------|
|-/12-------------|-(12)---------(12)-12-14-|
|-----------------|-------------------------|
|-----------------|-------------------------|
|-----------------|-------------------------|
|
|   Q  E E Q  E E     Q   E E Q    Q
|-----------------|-------------------------|
|-----------------|-------------------------|
|-----------------|-------------------------|
|-----------------|-------------------------|
|---2----5-4----6-|---5-----9-8----8\-------|
|---0--0-3-2--0-4-|---3---0-7-6----6\-------|


   |---3---|  |---3---|  |---3---|  |---3---|    |---3---|  |---3---|  |---3---|
   E  E    E  E  E    E  E  E    E  E  E    E    E  E    E  E  E    E  E  E    E  +Q
|---------------------------------------------|-13------13-15-13---15-17-15---17-(17)---|
|------------13------13-15-13---15-17-15---17-|----17-----------------------------------|
|-16-14---16----16----------------------------|-----------------------------------------|
|---------------------------------------------|-----------------------------------------|
|---------------------------------------------|-----------------------------------------|
|---------------------------------------------|-----------------------------------------|
|
|  E    E     E    E     E    E     E    E       E    E     E    E     E    E      E  E
|---------------------------------------------|-----------------------------------------|
|---------------------------------------------|-----------------------------------------|
|---------------------------------------------|-----------------------------------------|
|---------------------------------------------|-----------------------------------------|
|--2----2-----2----2-----2----2-----2----2----|--2----2-----2----2-----2----2------2--2-|
|--0----0-----0----0-----0----0-----0----0----|--0----0-----0----0-----0----0------0--0-|


   H       +H              a       +E.  +S       +E   +E       +Q..     +S
|-17------(17)b19r=====|=(17)b19==(17)r(17)b19==(17)r(17)b19==(17)r====(17)-|
|----------------------|----------------------------------------------------|
|----------------------|----------------------------------------------------|
|----------------------|----------------------------------------------------|
|----------------------|----------------------------------------------------|
|----------------------|----------------------------------------------------|
|
|  Q  E E   Q      E E              Q             E    E        Q   Q
|----------------------|----------------------------------------------------|
|----------------------|----------------------------------------------------|
|----------------------|----------------------------------------------------|
|----------------------|----------------------------------------------------|
|--2----5---4--------6-|------------5------------------9--------8---8\------|
|--0--0-3---2------0-4-|------------3-------------0----7--------6---6\------|


   S  S  S  S  S  S  S  S  S  S  S  S  S  S  S  S
|-------------------------------------------------|
|-18-18-18-18-18-18-18-18-17-17-17-17-17-17-17-17-|
|-17-17-17-17-17-17-17-17-16-16-16-16-16-16-16-16-|
|-------------------------------------------------|
|-------------------------------------------------|
|-------------------------------------------------|
|
|  E     E     E     E     E     E     E     E
|-------------------------------------------------|
|-------------------------------------------------|
|-------------------------------------------------|
|-------------------------------------------------|
|--2-----2-----2-----2-----2-----7-----7-----7----|
|--0-----0-----0-----0-----0-----0-----0-----0----|


   S  S  S  S  S  S  S  S  Q.      E
|-------------------------------------|
|-15-15-15-15-15-15-15-15-13------13\-|
|-14-14-14-14-14-14-14-14-13------13\-|
|-------------------------------------|
|-------------------------------------|
|-------------------------------------|
|
|  E     E     E     E     E  E E  E
|-------------------------------------|
|-------------------------------------|
|-------------------------------------|
|--9-----9-----9-----9-----9--9-9--9--|
|--7-----7-----7-----7-----7--7-7--7--|
|--0-----0-----0-----0-----0--0-0--0--|


   S  S  S  S  E  S  S  S  S  S  S  E  S  S
|-17-17-17-17-17-16-13-17-17-17-17-17-16-13-|
|-------------------------------------------|
|-------------------------------------------|
|-------------------------------------------|
|-------------------------------------------|
|-------------------------------------------|
|
|  Q           E  E     Q           E  E
|-------------------------------------------|
|-------------------------------------------|
|-------------------------------------------|
|-------------------------------------------|
|--2--------------5-----4--------------6----|
|--0-----------0--3-----2-----------0--4----|


   S  S  S  S  E  S  S  S  S  S  S  E   S  S
|-19-19-19-19-19-17-16-19-19-19-19-19--17-16-|
|--------------------------------------------|
|--------------------------------------------|
|--------------------------------------------|
|--------------------------------------------|
|--------------------------------------------|
|
|  Q           E  E     Q           Q
|--------------------------------------------|
|--------------------------------------------|
|--------------------------------------------|
|--------------------------------------------|
|--5--------------9-----8-----------8\-------|
|--3-----------0--7-----6-----------6\-------|


   S  S  S  S  E  S  S  S  S  S  S  E  S  S    S  S  E  S  S  E  E  +Q.
|-16-16-16-16-16-13-12-16-16-16-16-16-13-12-|-16-13-12-----------------------|
|-------------------------------------------|----------15-13-12--------------|
|-------------------------------------------|-------------------14-(14)\-----|
|-------------------------------------------|--------------------------------|
|-------------------------------------------|--------------------------------|
|-------------------------------------------|--------------------------------|
|
|  Q           E  E     Q           E  E       Q        E     E  Q       Q
|-------------------------------------------|--------------------------------|
|-------------------------------------------|--------------------------------|
|-------------------------------------------|--------------------------------|
|-----------------5-----4--------------6----|--5--------------9--8-------8\--|
|--2--------------3-----2--------------4----|--3--------------7--6-------6\--|
|--0-----------0--------------------0-------|-----------0--------------------|


   |--3--|  |---3---|  |--3--|  |---3---|
   E  E  E  E  E    E  E  E  E  E  E    E
|-----------------------------------------|
|-----------------------------------------|
|-----------------------------------------|
|------------------------------12------12-|
|----------12------12-15-12-15----15------|
|-15-12-15----15--------------------------|
|
|  Q        E    E     Q        E    E
|-----------------------------------------|
|-----------------------------------------|
|-----------------------------------------|
|-----------------------------------------|
|--2-------------5-----4-------------6----|
|--0--------0----3-----2--------0----4----|


   |--3--|  |---3---|  |--3--|  |--3---|
   E  E  E  E  E    E  E  E  E  E   E  E
|-----------------------------------------|
|------------------------------13-----13--|
|----------12------12-14-12-14-----14-----|
|-14-12-14----14--------------------------|
|-----------------------------------------|
|-----------------------------------------|
|
|  Q        E    E     Q        Q
|-----------------------------------------|
|-----------------------------------------|
|-----------------------------------------|
|-----------------------------------------|
|--5-------------9-----8--------8\--------|
|--3--------0----7-----6--------6\--------|


   H          H            H          H
|-12---------12---------|-17---------19---------||
|-15b17------15b17------|-20b22------22b24------||
|-----------------------|-----------------------||
|-----------------------|-----------------------||
|-----------------------|-----------------------||
|-----------------------|-----------------------||
|
|  Q     E E  Q     E E    Q     E E  Q     Q
|-----------------------|-----------------------||
|-----------------------|-----------------------||
|-----------------------|-----------------------||
|----------6--5-------7-|--6-------9--8-----8\--||
|--2-------4--3-------5-|--4-------7--6-----6\--||
|--0-----0----------0---|--------0--------------||


 Verse 5
                   ~~~~~~~~~~~~~~~~~~
   H              +H             +H.                +Q
|-22b24==========(22)---------|-(22)---------------(22)r\---|
|-----------------------------|-----------------------------|
|-----------------------------|-----------------------------|
|-----------------------------|-----------------------------|
|-----------------------------|-----------------------------|
|-----------------------------|-----------------------------|
|
|        PM--|     PM---|   PM       PM--|   PM--|        PM
|  E     S S E E   S  S E E E     E  S S E E S S E   E    E
|-----------------------------|-----------------------------|
|-----------------------------|-----------------------------|
|-----------------------------|-----------------------------|
|--2-----------2----------2---|---5--------5---------5------|
|--2-----------2----------2---|---5--------5---------5------|
|--------0-0-0-----0--0-0---0-|------0-0-0---0-0-0--------0-|


  W                     W
|---------------------|----------------------|
|---------------------|----------------------|
|---------------------|----------------------|
|---------------------|----------------------|
|---------------------|----------------------|
|---------------------|----------------------|
|
|   PM--|   PM--|   PM    PM--|   PM--|   PM
| E S S E E S S E E E   E S S E E S S E E E
|---------------------|----------------------|
|---------------------|----------------------|
|---------------------|----------------------|
|-4-------4-------4---|-3-------3-------3----|
|-4-------4-------4---|-3-------3-------3----|
|---0-0-0---0-0-0---0-|---0-0-0---0-0-0---0--|


  Gtrs I, II
    PM--|   PM--|   PM    PM--|   PM--|   PM
  E S S E E S S E E E   E S S E E S S E E E
|---------------------|---------------------|
|---------------------|---------------------|
|---------------------|---------------------|
|-2-------2-------2---|-5-------5-------5---|
|-2-------2-------2---|-5-------5-------5---|
|---0-0-0---0-0-0---0-|---0-0-0---0-0-0---0-|


    PM--|   PM--|   PM    PM--|   PM--|   PM
  E S S E E S S E E E   E S S E E S S E E E
|---------------------|----------------------|
|---------------------|----------------------|
|---------------------|----------------------|
|-4-------4-------4---|-3-------3-------3----|
|-4-------4-------4---|-3-------3-------3----|
|---0-0-0---0-0-0---0-|---0-0-0---0-0-0---0--|


    PM--|   PM--|   PM    PM--|   PM--|   PM
  E S S E E S S E E E   E S S E E S S E E E
|---------------------|---------------------|
|---------------------|---------------------|
|---------------------|---------------------|
|-2-------2-------2---|-5-------5-------5---|
|-2-------2-------2---|-5-------5-------5---|
|---0-0-0---0-0-0---0-|---0-0-0---0-0-0---0-|


    PM--|   PM--|   PM    PM--|   PM--|   PM
  E S S E E S S E E E   E S S E E S S E E E
|---------------------|----------------------|
|---------------------|----------------------|
|---------------------|----------------------|
|-4-------4-------4---|-3-------3-------3----|
|-4-------4-------4---|-3-------3-------3----|
|---0-0-0---0-0-0---0-|---0-0-0---0-0-0---0--|


    PM--|   PM--|   PM    PM--|   PM--|   PM
  E S S E E S S E E E   E S S E E S S E E E
|---------------------|---------------------|
|---------------------|---------------------|
|---------------------|---------------------|
|-2-------2-------2---|-5-------5-------5---|
|-2-------2-------2---|-5-------5-------5---|
|---0-0-0---0-0-0---0-|---0-0-0---0-0-0---0-|


    PM--|   PM--|   PM
  E S S E E S S E E E   Q  Q  Q   Q
|---------------------|---------------||
|---------------------|---------------||
|---------------------|---------------||
|-4-------4-------4---|-3-------------||
|-4-------4-------4---|-3-------------||
|---0-0-0---0-0-0---0-|-------x\--x\--||


 Out-Chorus
  Q  E E Q  E E   Q  E E Q  Q     E E E E E E E E   E E E E E E E E
|---------------|---------------|-----------------|-----------------|
|---------------|---------------|-----------------|-----------------|
|---------------|---------------|-----------------|-----------------|
|---------------|---------------|-----------------|-----------------|
|-2----5-4----6-|-5----9-8--8\--|-2-2-2-2-2-2-2-2-|-2-2-2-2-2-2-2-2-|
|-0--0-3-2--0-4-|-3--0-7-6--6\--|-0-0-0-0-0-0-0-0-|-0-0-0-0-0-0-0-0-|


  Q  E E Q  E E   Q  E E Q  Q     E E E E E E E E   E E E E E E E E
|---------------|---------------|-----------------|-----------------|
|---------------|---------------|-----------------|-----------------|
|---------------|---------------|-----------------|-----------------|
|---------------|---------------|-----------------|-9-9-9-9-9-9-9-9-|
|-2----5-4----6-|-5----9-8--8\--|-2-2-2-2-2-7-7-7-|-7-7-7-7-7-7-7-7-|
|-0--0-3-2--0-4-|-3--0-7-6--6\--|-0-0-0-0-0-0-0-0-|-0-0-0-0-0-0-0-0-|


  Q  E E Q  E E   Q  E E Q  Q     Q  E E Q  E E   Q  E E Q  Q
|---------------|---------------|---------------|---------------|
|---------------|---------------|---------------|---------------|
|---------------|---------------|---------------|---------------|
|---------------|---------------|------5-4----6-|-5----9-8--8\--|
|-2----5-4----6-|-5----9-8--8\--|-2----3-2----4-|-3----7-6--6\--|
|-0--0-3-2--0-4-|-3--0-7-6--6\--|-0--0------0---|----0----------|


  Q  E E Q  E E   Q  E E Q  Q     Q  E E Q  E E   Q  E E Q  Q
|---------------|---------------|---------------|---------------||
|---------------|---------------|---------------|---------------||
|---------------|---------------|---------------|---------------||
|---------------|---------------|------6-5----7-|-6----9-8--8\--||
|-2----5-4----6-|-5----9-8--8\--|-2----4-3----5-|-4----7-6--6\--||
|-0--0-3-2--0-4-|-3--0-7-6--6\--|-0--0------0---|----0----------||


 Outro
  G5                                                Bb5A5
  Gtr II
  Q       Q       H                 H               Q  Q
  |                                                 |  |
  /                                                 /  /

  Gtr I
  S S S S S S S S S S S S S S S S   S S S S S S S S Q  Q
|---------------------------------|-----------------------|
|---------------------------------|-----------------------|
|---------------------------------|-----------------------|
|---------------------------------|-----------------8--7--|
|---------------------------------|-----------------8--7--|
|-3p1p0-0-0-0-3p1p0-0-0-0-3p1p0-0-|-0-0-3p1p0-0-0-0-6--5--|


                                                    Bb5A5
  W                                 H               Q  Q
                                                    |  |
                                                    /  /

  S S S S S S S S S S S S S S S S   S S S S S S S S Q  Q
|---------------------------------|-----------------------|
|---------------------------------|-----------------------|
|---------------------------------|-----------------------|
|---------------------------------|-----------------8--7--|
|---------------------------------|-----------------8--7--|
|-3p1p0-0-0-0-3p1p0-0-0-0-3p1p0-0-|-0-0-3p1p0-0-0-0-6--5--|


  E5                         F5E5
  Q  Q  Q  Q    Q  Q  H      E q  e +E  q  e   +E  q  e +E  E Q
  |     |       |            | |  |  |  |  |    |  |  |  |
  /     /       /            / /  /  /  /  /    /  /  /  /

  Q  Q  Q  Q    Q  Q  H      E q  e +E  q  e   +E  q  e +E  E Q
|-------------|------------|-----------------|-------------------*|
|-------------|------------|-----------------|-------------------*|
|-------------|------------|-----------------|-------------------*|
|-------------|------------|-----------------|-------------------*|
|-2-----2-----|-2----------|-3-2--2-(2)-2--2-|-(2)-2--2-(2)------*|
|-0-----0-----|-0----------|-1-0--0-(0)-0--0-|-(0)-0--0-(0)------*|



Duration Legend
---------------
W - whole; H - half; Q - quarter; E - 8th; S - 16th; T - 32nd; X - 64th; a - acciaccatura
+ - note tied to previous; . - note dotted; .. - note double dotted
Uncapitalized letters represent notes that are staccato (1/2 duration)
Irregular groupings are notated above the duration line
Duration letters will always appear directly above the note/fret number it represents the
duration for.  Duration letters with no fret number below them represent rests.  Multi-
bar rests are notated in the form Wxn, where n is the number of bars to rest for.  Low
melody durations appear below the staff

Tablature Legend
----------------
 h   - hammer-on
 p   - pull-off
 b   - bend
 pb  - pre-bend
 r   - bend release (if no number after the r, then release immediately)
 /\  - slide into or out of (from/to "nowhere")
 s   - legato slide
 S   - shift slide
 - natural harmonic
[n]  - artificial harmonic
n(n) - tapped harmonic
 ~   - vibrato
 tr  - trill
 T   - tap
 TP  - trem. picking
 PM  - palm muting
\n/  - tremolo bar dip; n = amount to dip
 \n  - tremolo bar down
 n/  - tremolo bar up
/n\  - tremolo bar inverted dip
 =   - hold bend; also acts as connecting device for hammers/pulls
 <> - volume swell (louder/softer)
 x   - on rhythm slash represents muted slash
 o   - on rhythm slash represents single note slash

Misc Legend
-----------
 |  - bar
||  - double bar
||o - repeat start
o|| - repeat end
*|  - double bar (ending)
 :  - bar (freetime)
 $  - Segno
 &  - Coda
Tempo markers -  = BPM(8/16=s8/s16), where s8 = swing 8ths, s16 = swing 16ths

Tap to rate this tab
 
# A B C D E F G H I J K L M N O P Q R S T U V W X Y Z