Song name
# A B C D E F G H I J K L M N O P Q R S T U V W X Y Z

Slayer - The Antichrist tab

-------------------------------------------------------------------------------
			     THE ANTICHRIST - Slayer
-------------------------------------------------------------------------------
Tabbed by: GuitarHero_JP
Email: j.proudlove@hotmail.co.uk

Guitar I: Kerry King - D# A# F# C# G# D#
Guitar II: Jeff Hanneman - D# A# F# C# G# D#

Q=125

Intro 4/4
Guitar I
       E  S S S E  S S S S E   S E     E  S S S E  S S S S E   S E     
D#||--------------------------------|--------------------------------||
A#||--------------------------------|--------------------------------||
F#||*-------------------------------|-------------------------------*||
C#||*-----4-2--------4-2---------4--|-----4-2--------4-2---------4--*||
G#||----------3-2--------3-2-----2--|---------3-2--------3-2-----2---||
D#||---2-----------2-----------2----|--2-----------2-----------2-----||
  |
  |
  |Guitar II
  |    H.           E  E     H.           E  E     
D#||----------------------|----------------------||
A#||----------------------|----------------------||
F#||*------------------4--|------------------4--*||
C#||*------------------4--|------------------4--*||
G#||-------------------2--|------------------2---||
D#||----------------------|----------------------||

Drums enter                       ________________________________
Guitar I & II                    |1.                      
   E  S S S E  S S S S E  S E     E  S S S E  S S S S E  S E     
||-------------------------------|-------------------------------||
||-------------------------------|-------------------------------||
||*------------------------------|------------------------------*||
||*-----4-2--------4-2--------4--|-----4-2--------4-2--------4--*||
||----------4-3--------4-3----2--|---------4-3--------4-3----2---||
||---2-----------2----------2----|--2-----------2----------2-----||
 ______________________________
|2.
  E  S S S E  S S S S S S S S S   
--------------------------------||
--------------------------------||
--------------------------------||
-----4-2--------4-2-------------||
---------4-3--------4-3-2-------||
--2-----------2-----------4-3-2-||

Pre-Verse
Guitars I & II
   E  S   S S S   S S S   S S S   S S E    E  S   S S S   S S S   S S S   S S  E 
----------------------------------------|-----------------------------------------|
----------------------------------------|-----------------------------------------|
----------------------------------------|-----------------------------------------|
-----9S-10---9S-10-------------------7--|-----9S-10---9S-10-------------------12--|
-----7S--8---7S--8---9S-10---9S-10---5--|-----7S--8---7S--8---9S-10---9S-10---10--|
--0--------0-------0-7S--8-0-7S--8-0----|--0--------0-------0-7S--8-0-7S--8-0-----|

  E  S   S S S   S S S   S S S   S S E     E  S   S S S   S S S S S S S S S S   
----------------------------------------|-------------------------------------||
----------------------------------------|-------------------------------------||
----------------------------------------|-------------------------------------||
-----9S-10---9S-10-------------------7--|-----9S-10---9S-10---7-5-------------||
-----7S--8---7S--8---9S-10---9S-10---5--|-----7S--8---7S--8-------7-6-5-------||
--0--------0-------0-7S--8-0-7S--8-0----|--0--------0-------0-----------7-6-5-||

Verse
Guitar's I & II
    E  S   S S S   S S S   S S S   S S E   
|-----------------------------------------|
|-----------------------------------------|
|*----------------------------------------|
|*-----9S-10---9S-10-------------------7--|
|------7S--8---7S--8---9S-10---9S-10---5--|
|---0--------0-------0-7S--8-0-7S--8-0----|


  E  S   S S S   S S S   S S S   S S  E   
-----------------------------------------|
-----------------------------------------|
-----------------------------------------|
-----9S-10---9S-10-------------------12--|
-----7S--8---7S--8---9S-10---9S-10---10--|
--0--------0-------0-7S--8-0-7S--8-0-----|

                                         __________________________________
                                        |1.
  E  S   S S S   S S S   S S S   S S E     E  S   S S S   S S E.  E +S E     
----------------------------------------|----------------------------------||
----------------------------------------|----------------------------------||
----------------------------------------|---------------------------------*||
-----9S-10---9S-10-------------------7--|-----9S-10---9S-10---------------*||
-----7S--8---7S--8---9S-10---9S-10---5--|-----7S--8---7S--8---5---5----5---||
--0--------0-------0-7S--8-0-7S--8-0----|--0--------0-------0-3---3----3---||

 ________________________________
|2.
  E  S   S S S   S S E.  E +S E    
---------------------------------||
---------------------------------||
---------------------7---7----7--||
-----9S-10---9S-10---7---7----7--||
-----7S--8---7S--8---5---5----5--||
--0--------0-------0-------------||

Chorus
Guitar I
  Q    E  E  E  Q    E       Q    Q    E  Q    E    Q    E  E  E  Q    E  
||------------------------|-----------------------|------------------------|
||------------------------|-----------------------|------------------------|
||--5----3--3-------------|-----------------------|--5----3--3-------------|
||--5----3--3--7--7----7--|-------3----7--7----7--|--5----3--3--7--7----7--|
||--3----1--1--5--5----5--|--8----3----5--5----5--|--3----1--1--5--5----5--|
||------------------------|--6----1---------------|------------------------|
 |
 |
 |Guitar II
 |  Q    Q    E  Q    E      Q     Q    E  Q    E    Q    Q    E  Q    E
||-----------------------|-------------------------|-----------------------|
||-----------------------|-------------------------|-----------------------|
||--7----5----9--9----9--|--------12----9--9----9--|--7----5----9--9----9--|
||--5----3----7--7----7--|--10----10----7--7----7--|--5----3----7--7----7--|
||-----------------------|---8---------------------|-----------------------|
||-----------------------|-------------------------|-----------------------|

2/4
Guitar I
   Q    Q
|------------||
|------------||
|------------||
|-------3----||
|--8----3----||
|--6----1----||
|
|
|Guitar II
|   Q     Q
|--------------||
|--------------||
|--------12----||
|--10----10----||
|---8----------||
|--------------||

Verse

Solo 4/4

Q=240

Rhythm for the solo (Guitar II)
  Q    E  E  E  E  E  E     Q.     H       +E     Q    E  E  E  E  E  E   
|-------------------------|---------------------|-------------------------|
|-------------------------|---------------------|-------------------------|
|-------------------------|---------------------|-------------------------|
|-------------------------|--5------4-----------|-------------------------|
|--2----------------------|--3------2-----------|--2----------------------|
|--0----0--0--0--0--0--0--|---------------------|--0----0--0--0--0--0--0--|

  Q.     H       +E
---------------------|
---------------------|
---------------------|
---------------------|
--5------7-----------|
--3------5-----------|

Solo (Guitar I)
   H.           +E +S  S     +E   E   +E   E   +Q      E  E   
--22b-----------------22br-|-----22br-----22br-----------22--|
---------------------------|---------------------------------|
---------------------------|---------------------------------|
---------------------------|---------------------------------|
---------------------------|---------------------------------|
---------------------------|---------------------------------|


   E   +E   E    E   S   S   E   S   S   E   
--22br-----22p--19--22p-21p-19--20p-19p-17--|
--------------------------------------------|
--------------------------------------------|
--------------------------------------------|
--------------------------------------------|
--------------------------------------------|


   S   S   E   S   S   E   S   E.   E   E      Q.      +E +E. +S  Q      
--18p-17p-15--17p-16p-14--15p-14---12------|----------------------------|
---------------------------------------13--|--13br---------------13b----|
-------------------------------------------|----------------------------|
-------------------------------------------|----------------------------|
-------------------------------------------|----------------------------|
-------------------------------------------|----------------------------|


   Q       E   +E +Q     E   E   
--------------------------------|
--13br----13br----------13--10--|
--------------------------------|
--------------------------------|
--------------------------------|
--------------------------------|


   |----3----|   |--3-|     |----3----|   |--3-|     
   E    E    E   E    Q     E    E    E   E    Q     
----------------------------------------------------|
--13p--11p--10--11p--10----13p--11p--10--11p--10----|
----------------------------------------------------|
----------------------------------------------------|
----------------------------------------------------|
----------------------------------------------------|


   E   E   E   E  +Q     Q     
------------------------------|
------15--18--18b-------18----|
--17--------------------------|
------------------------------|
------------------------------|
------------------------------|


   |----3----|   |----3----|    |----3----|   |---3---|   
   E    E    E   E    E    E    E    E    E   E   E   E   
---------------------------------------------------------|
---------------------------------------------------------|
-------------------------------------------------15------|
----------------15h--17p--15h--17p--15h--17--17------17--|
--17p--15h--17-------------------------------------------|
---------------------------------------------------------|


   |----3----|   |--3--|    |----3---|    |---3--|   
   E    E    E   Q     E    E   E    E    Q      E   
----------------------------------------------------|
----------------------15h--17--17p--15h--18p----15--|
--17p--15h--17--17----------------------------------|
----------------------------------------------------|
----------------------------------------------------|
----------------------------------------------------|


   |---3---|   |---3---|   |---3---|   |---3---|   
   E   E   E   E   E   E   E   E   E   E   E   E   
--18--18--17--15--15--17--18--18--17--15--15--17--|
--------------------------------------------------|
--------------------------------------------------|
--------------------------------------------------|
--------------------------------------------------|
--------------------------------------------------|


   |---3---|   |---3---|   |---3---|   |---3---|   
   E   E   E   E   E   E   E   E   E   E   E   E   
--18--18--17--15--15--17--18--18--17--18--18--20--|
--------------------------------------------------|
--------------------------------------------------|
--------------------------------------------------|
--------------------------------------------------|
--------------------------------------------------|


   |---3---|   |---3---|   |---3---|   |---3---|   
   E   E   E   E   E   E   E   E   E   E   E   E   
--22--17--17--23--17--17--22--17--17--20--17--17--|
--------------------------------------------------|
--------------------------------------------------|
--------------------------------------------------|
--------------------------------------------------|
--------------------------------------------------|


   |---3---|   |---3---|   |---3---|   |---3---|   
   E   E   E   E   E   E   E   E   E   E   E   E   
--22--17--17--24--17--17--22--17--17--20--17--17--|
--------------------------------------------------|
--------------------------------------------------|
--------------------------------------------------|
--------------------------------------------------|
--------------------------------------------------|


   |---3---|   |---3---|   |---3---|   |---3---|   
   E   E   E   E   E   E   E   E   E   E   E   E   
--22--17--17--24--17--17--22--17--17--20--17--17--|
--------------------------------------------------|
--------------------------------------------------|
--------------------------------------------------|
--------------------------------------------------|
--------------------------------------------------|


   |---3---|   |---3---|   |-3-|    |---3---|   Interlude Starts Here                             
   E   E   E   E   E   E   E   Q   +E   E   E      H        S S E  E  S S  
--22--17--17--24--17--17--20--17-------17--17--|--------------------------|
-----------------------------------------------|--20----------------------|
-----------------------------------------------|--------------------------|
-----------------------------------------------|----------------9--9------|
-----------------------------------------------|----------------7--7------|
-----------------------------------------------|------------0-0-------0-0-|

Guitar's I & II
  Q    E  S S E   S  S  E  S S    Q    E  S S S S E  E  S S  
-------------------------------|----------------------------|
-------------------------------|----------------------------|
-------------------------------|----------------------------|
--7----7--3-3-3--10-10-10------|--9----9----------9--9------|
--5----5--1-1-1---8--8--8------|--7----7----------7--7------|
---------------------------0-0-|----------0-0-0-0-------0-0-|


  Q    E  S S E   S  S  E  S S   
-------------------------------||
-------------------------------||
-------------------------------||
--7----7--3-3-3--10-10-10------||
--5----5--1-1-1---8--8--8------||
---------------------------0-0-||

Solo 2 Pt. 1 (Interlude Plays along)
   H       +E   E  +Q     
-------------------------|
-------------------------|
--12-----------12b-------|
-------------------------|
-------------------------|
-------------------------|


   Q.       E   E   E   E   E      H        E   E    Q     
-------------------------------|--------------------------|
-----------------------15--17--|--17--------L--17br--L----|
--12br------L--12--10----------|--------------------------|
-------------------------------|--------------------------|
-------------------------------|--------------------------|
-------------------------------|--------------------------|


  Q.     E   Q      E   S  S     E   S  S  E   S  S  E   S  S  E   S  S  
-----------------------------|------------------------------------------|
--L------L--17br----L--17-17-|--17--15-15-15--17-17-17--19-19-19--20-20-|
-----------------------------|------------------------------------------|
-----------------------------|------------------------------------------|
-----------------------------|------------------------------------------|
-----------------------------|------------------------------------------|


   E   S  S  E   S  S  E   S  S  E.   S    
------------------------------------------|
--20--22-22-22--20-20-20--17-17-17---17br-|
------------------------------------------|
------------------------------------------|
------------------------------------------|
------------------------------------------|


                              |--3--|                        
  E.  S  Q    E   S  S  S  S  S  S  S    H.           E  E   
--------------------------------------|------------------0--|
--L---L-17----L--15----15----17-15----|---------------------|
--------------------16----16-------16-|--L------------L-----|
--------------------------------------|---------------------|
--------------------------------------|---------------------|
--------------------------------------|---------------------|

Rhythm for part 2
   E  E  E  E  E  E  E  E
|--------------------------|
|--------------------------|
|--------------------------|
|--------------------------|
|--------------------------|
|--8--8--8--8--8--8--8--8--|

  E  E  E  E  E  E  E  E     E  E  E  E  E  E  E  E   
--------------------------|--------------------------|
--------------------------|--------------------------|
--------------------------|--------------------------|
--------------------------|--------------------------|
--------------------------|--------------------------|
--8--8--8--8--8--8--8--8--|--7--7--7--7--7--7--7--7--|

  E  E  E  E  E  E  E  E
--------------------------|
--------------------------|
--------------------------|
--------------------------|
--------------------------|
--7--7--7--7--7--7--7--7--|

Solo 2 Pt. 2
         |---3---|         |---3---|            |---3---|         |---3---|   
  E   E  E   E   E  E   E  E   E   E     E   E  E   E   E  E   E  E   E   E   
--3p--0--5p--3p--0--3p--0--5p--3p--0--|--3p--0--5p--3p--0--3p--0--5p--3p--0--|
--------------------------------------|--------------------------------------|
--------------------------------------|--------------------------------------|
--------------------------------------|--------------------------------------|
--------------------------------------|--------------------------------------|
--------------------------------------|--------------------------------------|


         |---3---|         |---3---|   
  E   E  E   E   E  E   E  E   E   E   
--5p--0--7p--5p--0--5p--0--7p--5p--0--|
--------------------------------------|
--------------------------------------|
--------------------------------------|
--------------------------------------|
--------------------------------------|


  |---3--|   |---3---|  |---3--|  |---3---|   
  E   E  E   E   E   E  E   E  E  E   E   E   
--5p--0--7p--0h--5p--0--7p--0--0--3p--0--12--|
---------------------------------------------|
---------------------------------------------|
---------------------------------------------|
---------------------------------------------|
---------------------------------------------|


   |----3---|   |----3---|   |----3---|   |----3---|   
   E    E   E   E    E   E   E    E   E   E    E   E   
--15p--12p--0--15p--12p--0--15p--12p--0--15p--12p--0--|
------------------------------------------------------|
------------------------------------------------------|
------------------------------------------------------|
------------------------------------------------------|
------------------------------------------------------|


   |----3---|   |----3---|   |----3---|   |----3---|   
   E    E   E   E    E   E   E    E   E   E    E   E   
--15p--12p--0--15p--12p--0--15p--12p--0--15p--12p--0--|
------------------------------------------------------|
------------------------------------------------------|
------------------------------------------------------|
------------------------------------------------------|
------------------------------------------------------|


   |---3---|   |---3---|   |---3---|   |---3---|   
   E   E   E   E   E   E   E   E   E   E   E   E   
--15--12--15--12--15--12--------------------------|
--------------------------15--12--15--12--15--12--|
--------------------------------------------------|
--------------------------------------------------|
--------------------------------------------------|
--------------------------------------------------|


   |---3---|   |---3---|                                           
   E   E   E   E   E   E   Q     E   E      H.             E   E   
----------------------------------------|-------------------------|
------------------------------------12--|--15b------------15--17--|
--14--12--14--12--14--12--------14------|-------------------------|
--------------------------14------------|-------------------------|
----------------------------------------|-------------------------|
----------------------------------------|-------------------------|


   Q      E   E    E   E  E   E   
---------------------------------|
--17b----20--20br--L--20---------|
---------------------------------|
--------------------------7h--9--|
---------------------------------|
---------------------------------|


   |---3---|   |----3---|   |----3---|   |---3---|   
   E   E   E   E    E   E   E    E   E   E   E   E   
----------------------------------------------------|
----------------------------------------------------|
----------------------------------------------------|
--10p--9p--7--12p--10p--9---------------------------|
---------------------------12p--10p--9--10p--9p--7--|
----------------------------------------------------|


  E  E  E  E  E  E  E  E    
--------------------------||
--------------------------||
--------------------------||
--7--5--------------------||
--------7--6--5-----------||
-----------------7--6--5--||

Verse

Chorus

Outro
Guitar I & II
   W                   W           
|-------------------|-------------------|
|-------------------|-------------------|
|-------------------|-------------------|
|-------------------|-------------------|
|--3----------------|--L----------------|
|--1----------------|--L----------------|

                        |--3--|       |--3--|        
  H.           E  E     E  E  E  Q    E  E  E  Q     
---------------------|------------------------------|
---------------------|------------------------------|
---------------------|------------------------------|
------------------5--|--7--7--7--7----9--9--9--9----|
--L------------L--3--|--5--5--5--5----7--7--7--7----|
--L------------L-----|------------------------------|


  |--3--|       |--3--|                               
  E  E  E  Q    E  E  E  Q       Q    Q    H          
------------------------------|---------------------||
------------------------------|---------------------||
------------------------------|---------------------||
--7--7--7--7----5--5--5--5----|--2------------------||
--5--5--5--5----3--3--3--3----|--0------------------||
------------------------------|---------------------||

Hope you enjoy the tab!!!!! took me ages so please do!!!

Duration Legend
---------------
W - whole
H - half
Q - quarter
E - 8th
S - 16th
T - 32nd
X - 64th
. - note dotted
|-n-|  - n-tuplets


Tablature Legend
----------------
L - tied note
x - dead note
g - grace note
(n) - ghost note
> - accentuded note
NH - natural harmonic
AH - artificial harmonic
TH - tapped harmonic
SH - semi harmonic
PH - pitch harmonic
h - hammer on
p - pull off
b - bend
br - bendRelease
pb - preBend
pbr - preBendRelease
brb - bendReleaseBend
\n/ - tremolo bar dip
\n - tremolo bar dive
-/n - tremolo bar Release up
/n\ - tremolo bar inverted dip
/n - tremolo bar return
-\n - tremolo bar Release down
S - shift slide
s - legato slide
/ -  slide into from below or out of upwards
\ -  slide into from above or out of downwards
~ - vibrato
W - wide vibrato
tr - trill
TP - tremolo picking
T - tapping
S - slap
P - pop
< - fade in
^ - brush up
v - brush down
Tap to rate this tab
# A B C D E F G H I J K L M N O P Q R S T U V W X Y Z