Song name
# A B C D E F G H I J K L M N O P Q R S T U V W X Y Z

Slayer - Hell Awaits tab

#----------------------------------PLEASE NOTE---------------------------------#
#This file is the author's own work and represents their interpretation of the #
#song. You may only use this file for private study, scholarship, or research. #
#------------------------------------------------------------------------------#

HELL AWAITS
As recorded by Slayer
(From the 1985 Album HELL AWAITS)

Transcribed by James Williams (Inverted)
	

Words by King Music by Hanneman, King

C5
8 10 x x x x
	
E5
x 7 9 x x x
	
Eb5
x 6 8 x x x
	
B5
7 9 x x x x

C#5
9 11 x x x x

Gtr I (Eb Ab Db Gb Bb Eb) - 'Hanneman'
Gtr II (Eb Ab Db Gb Bb Eb) - 'King'

 Intro
  Heavy Metal Q=109
  E
 4/4
  Gtr I
  S S S S S S S S S S S S S S S S   S S S S S S S S S S S S S S S S
  | | | | | | | | | | | | | | | |   | | | | | | | | | | | | | | | |
  o / / / / / / / / / / / / / / /   / / / / / / / / / / / / / / / /

  Gtr II
  W                                 W
|---------------------------------|---------------------------------||
|---------------------------------|---------------------------------||
|---------------------------------|---------------------------------||
|---------------------------------|---------------------------------||
|---------------------------------|---------------------------------||
|---------------------------------|---------------------------------||


  S S S S S S S S S S S S S S S S    S  S S S S S S S S S S S S S S S
  | | | | | | | | | | | | | | | |    |  | | | | | | | | | | | | | | |
  / / / / / / / / / / / / / / / /    /  / / / / / / / / / / / / / / /

  W                                 +H.                       E   E
|---------------------------------|-------------------------------------|
|---------------------------------|-------------------------------------|
|---------------------------------|-------------------------------------|
|---------------------------------|-------------------------------------|
|-2-------------------------------|-(2)-----------------------3---2-----|
|-0-------------------------------|-(0)-----------------------1---0-----|


  E
  S S S S S S S S S S S S S S S S    S  S S S S S S S S S S S S S S S
  | | | | | | | | | | | | | | | |    |  | | | | | | | | | | | | | | |
  o / / / / / / / / / / / / / / /    /  / / / / / / / / / / / / / / /

  W                                 +H.                       Q
|---------------------------------|-----------------------------------|
|---------------------------------|-----------------------------------|
|---------------------------------|-----------------------------------|
|-3-------------------------------|-(3)-------------------------------|
|-1-------------------------------|-(1)-----------------------2-------|
|---------------------------------|---------------------------0-------|


  S S S S S S S S S S S S S S S S    S  S S S S S S S S S S S S S S S
  | | | | | | | | | | | | | | | |    |  | | | | | | | | | | | | | | |
  / / / / / / / / / / / / / / / /    /  / / / / / / / / / / / / / / /

  W                                 +H.                       E   E
|---------------------------------|--------------------------------------|
|---------------------------------|--------------------------------------|
|---------------------------------|--------------------------------------|
|---------------------------------|--------------------------------------|
|-3-------------------------------|-(3)-----------------------3---2------|
|-1-------------------------------|-(1)-----------------------1---0------|


  E
  S  S S S S S S S S S S S  S  S S S    S  S S S S S S S S S S S S S  S S
  |  | | | | | | | | | | |  |  | | |    |  | | | | | | | | | | | | |  | |
  o  / / / / / / / / / / /  /  / / /    /  / / / / / / / / / / / / /  / /

                            \1
  H.                       +Q          +H.                       S E.
|------------------------------------|------------------------------------|
|------------------------------------|------------------------------------|
|------------------------------------|------------------------------------|
|-3------------------------(3)-------|-(3)-----------------------9-9------|
|-1------------------------(1)-------|-(1)-----------------------7-7------|
|------------------------------------|------------------------------------|


  E
   S S S S S S S S S S S S S S S S
   | | | | | | | | | | | | | | | |
   o / / / / / / / / / / / / / / /

   W
|----------------------------------|
|----------------------------------|
|----------------------------------|
|-10-------------------------------|
|--8-------------------------------|
|----------------------------------|


    S  S S S   S   S   S   S   S   S   S   S   S S S S
    |  | | |   |   |   |   |   |   |   |   |   | | | |
    /  / / /   /   /   /   /   /   /   /   /   / / / /

   +E.     T T T T T T T T T T T T T T T T T T E   E
|--------------------------------------------------------|
|--------------------------------------------------------|
|--------------------------------------------------------|
|-(10)-----xSxSxSxSxSxSxSxSxSxSxSxSxSxSxSxSxSx-----------|
|--(8)-----------------------------------------6---2-----|
|----------------------------------------------4---0-----|


  E
  S S S S S S S S S S S S S S S S    S  S S S S S S S S S S S S S S S
  | | | | | | | | | | | | | | | |    |  | | | | | | | | | | | | | | |
  o / / / / / / / / / / / / / / /    /  / / / / / / / / / / / / / / /

  W                                 +H.                       E   E
|---------------------------------|-----------------------------------|
|---------------------------------|-----------------------------------|
|---------------------------------|-----------------------------------|
|---------------------------------|-----------------------------------|
|-3-------------------------------|-(3)-----------------------3---2---|
|-1-------------------------------|-(1)-----------------------1---0---|


  S S S S S S S S S S S S S  S S S
  | | | | | | | | | | | | |  | | |
  / / / / / / / / / / / / /  / / /

  H               Q       Q
|----------------------------------|
|----------------------------------|
|----------------------------------|
|----------------------------------|
|-8---------------7-------6\-------|
|-6---------------5-------6\-------|


  N.C.                                                      F5 E5F5
  Gtrs I, II
  PM------------------------------------------------------|
  S S S S S S S S S S S S S S S S   S S S S S S S S S S S S  S S  E
|---------------------------------|---------------------------------|
|---------------------------------|---------------------------------|
|---------------------------------|---------------------------------|
|---------------------------------|-------------------------10s9-10-|
|---------------------------------|--------------------------8s7--8-|
|-0-0-0-0-0-0-0-0-0-0-0-0-0-0-0-0-|-0-0-0-0-0-0-0-0-0-0-0-0---------|


  N.C.
  PM----------------------------|
  S S S S S S S S S S S S S S S S
|----------------------------------|
|----------------------------------|
|----------------------------------|
|----------------------------------|
|----------------------------------|
|-0-0-0-0-0-0-0-0-0-0-0-0-0-0-0-0--|


  N.C.                    BbA5Bb5
  PM--------------------|
  S S S S S S S S S S S S S S E
|-------------------------------|
|-------------------------------|
|-------------------------------|
|-------------------------------|
|-------------------------8s7-8-|
|-0-0-0-0-0-0-0-0-0-0-0-0-6s5-6-|


  N.C.                                  F5     D5    A5BbF5
  PM----------------------------------|    PM|   PM|
  S S S S S S S S S S S S S S S S   S S  E S S E S S E E E
|---------------------------------|------------------------|
|---------------------------------|------------------------|
|---------------------------------|------------------------|
|---------------------------------|-----10-----7-----------|
|---------------------------------|------8-----5-----7-8-3-|
|-0-0-0-0-0-0-0-0-0-0-0-0-0-0-0-0-|-0-0----0-0---0-0-5-6-1-|


  N.C.
  PM-------------------------------
  S S S S S S S S S S S S S S S S
|---------------------------------|
|---------------------------------|
|---------------------------------|
|---------------------------------|
|---------------------------------|
|-0-0-0-0-0-0-0-0-0-0-0-0-0-0-0-0-|


                  BbB5C5B5F5  N.C.
 ---------------|             PM----------------------------|
  S S S S S S S S S S E E E   S S S S S S S S S S S S S S S S
|---------------------------|---------------------------------|
|---------------------------|---------------------------------|
|---------------------------|---------------------------------|
|-----------------3-4-5-4---|---------------------------------|
|-----------------1-2-3-2-3-|---------------------------------|
|-0-0-0-0-0-0-0-0---------1-|-0-0-0-0-0-0-0-0-0-0-0-0-0-0-0-0-|


  N.C.                    F5 E5F5
  PM--------------------|
  S S S S S S S S S S S S  S S  E
|---------------------------------|
|---------------------------------|
|---------------------------------|
|-------------------------10s9-10-|
|--------------------------8s7--8-|
|-0-0-0-0-0-0-0-0-0-0-0-0---------|


  N.C.                    BbA5Bb5     F5     D5    A5BbF5
  PM--------------------|         PM|    PM|   PM|
  S S S S S S S S S S S S S S E   S S  E S S E S S E E E
|-------------------------------|-------------------------|
|-------------------------------|-------------------------|
|-------------------------------|-------------------------|
|-------------------------------|-----10-----7------------|
|-------------------------8s7-8-|------8-----5-----7-8-3--|
|-0-0-0-0-0-0-0-0-0-0-0-0-6s5-6-|-0-0----0-0---0-0-5-6-1--|


  N.C.                                            F5 E5F5 E5Bb5 A5BbB5G5F#5
                                                               2/4
  PM--------------------------------------------|
  S S E S S S S S S S S S S S S   S S S S S S S S  S S  E E E   S S E E E
|-------------------------------|-----------------------------|-----------||
|-------------------------------|-----------------------------|-----------||
|-------------------------------|-----------------------------|-----------||
|-------------------------------|-----------------10-9-10-9---|-----------||
|-------------------------------|------------------8-7--8-7-8-|-7-8-9-5-4-||
|-0-0-0-0-0-0-0-0-0-0-0-0-0-0-0-|-0-0-0-0-0-0-0-0-----------6-|-5-6-7-3-2-||


    N.C.                                      Bb5
   4/4
    PM--------------------------------------|   PM|
    E S S E S S E S S E S S   E S S E S S S S E S S E
||--------------------------|--------------------------||
||o-------------------------|-------------------------o||
||--------------------------|--------------------------||
||--------------------------|-----------------3-----3--||
||o-------------------------|-----------------1-----1-o||
||--0-0-0-0-0-0-0-0-0-0-0-0-|-0-0-0-0-0-0-0-0---0-0----||


      E5N.C.        F5N.C.
        PM--------|   PM--------|
      E S S S S S S E S S S S S S
|-||------------------------------|
|-||o-----------------------------|
|-||------------------------------|
|-||--2-------------3-------------|
|-||o-2-------------3-------------|
|-||----0-0-0-0-0-0---0-0-0-0-0-0-|


                                                Faster Q=132
  F#N.C.        F#F5E5C5    A5BbE5G5F#F5E5C5    E5            F5    E5
    PM--------|
  E S S S S S S E E E E  5x E E E E E E E E     E S S E S S E  S  S E  S  S
|------------------------||-----------------||------------------------------|
|-----------------------o||-----------------||o-----------------------------|
|------------------------||-2-3-------------||--9-9-9-9-9-9-9-10-10-9-10-10-|
|-4-------------4-3-2----||-2-3-2-5-4-3-2---||--9-9-9-9-9-9-9-10-10-9-10-10-|
|-4-------------4-3-2-3-o||-----2-5-4-3-2-3-||o-7-7-7-7-7-7-7--8--8-7--8--8-|
|---0-0-0-0-0-0-------3--||---------------3-||------------------------------|


  E5            F5    E5G5      E5                F5 E5
  E S S E S S E  S  S E  S  S   E S S E S S E S S  E S S
|-----------------------------|--------------------------|
|-----------------------------|--------------------------|
|-9-9-9-9-9-9-9-10-10-9-12-12-|-9-9-9-9-9-9-9-9-9-10-9-9-|
|-9-9-9-9-9-9-9-10-10-9-12-12-|-9-9-9-9-9-9-9-9-9-10-9-9-|
|-7-7-7-7-7-7-7--8--8-7-10-10-|-7-7-7-7-7-7-7-7-7--8-7-7-|
|-----------------------------|--------------------------|


  F5          E5    G5    F5 G5
   E  S  S  E S S E  S  S  E  S  S
|-----------------------------------|
|-----------------------------------|
|-10-10-10-10-9-9-9-12-12-10-12-12--|
|-10-10-10-10-9-9-9-12-12-10-12-12--|
|--8--8--8--8-7-7-7-10-10--8-10-10--|
|-----------------------------------|


  G5                   F5    G5 F5
                                    PM
   E  S  S  E  S  S  E  S  S  E  S  S
|--------------------------------------||
|-------------------------------------o||
|-12-12-12-12-12-12-12-10-10-12-10-10--||
|-12-12-12-12-12-12-12-10-10-12-10-10--||
|-10-10-10-10-10-10-10--8--8-10--8--8-o||
|--------------------------------------||
|
| Gtr II
|  E  S  S  E  S  S  E  S  S  E  S  S
|--------------------------------------||
|-------------------------------------o||
|-12-12-12-12-12-12-12-10-10-12-10-10--||
|-12-12-12-12-12-12-12-10-10-12-10-10--||
|-10-10-10-10-10-10-10--8--8-10--8--8-o||
|--------------------------------------||


                       Double time feel Q=192
  E5    C5B5C5D5G#G5   D5C#N.C.
        |-3-| |-3-|
  Q  Q  E E E E E E    E   H..
|-------------------||------------------------------------|
|-------------------||------------------------------------|
|-9-----------------||------------------------------------|
|-9-----5-4-5-7-----||------------------------------------|
|-7-----3-2-3-5-6-5-||-2----------------------------------|
|---------------4-3-||-0----------------------------------|
|
|                          PM--------------------------|
|       |-3-| |-3-|
| Q  Q  E E E E E E    S S S   S S S S S S S S S S S S S
|-------------------||------------------------------------|
|-------------------||------------------------------------|
|-9-----------------||------------------------------------|
|-9-----5-4-5-7-----||-7s6--------------------------------|
|-7-----3-2-3-5-6-5-||-5s4--------------------------------|
|---------------4-3-||-----0---0-0-0-0-0-0-0-0-0-0-0-0-0--|


  D5C#5       B5Bb5             D5C#N.C.
  W                             W
|-----------------------------|---------------------------------|
|-----------------------------|---------------------------------|
|-----------------------------|---------------------------------|
|-----------------------------|---------------------------------|
|-----------------------------|---------------------------------|
|-----------------------------|---------------------------------|
|
|     PM----|     PM--------|       PM------------------------|
| S S S S S S E E S S S S S S   S S S S S S S S S S S S S S S S
|-----------------------------|---------------------------------|
|-----------------------------|---------------------------------|
|-----------------------------|---------------------------------|
|-7s6---------4p3-------------|-7s6-----------------------------|
|-5s4---------2p1-------------|-5s4-----------------------------|
|-----0-0-0-0-----0-0-0-0-0-0-|-----0-0-0-0-0-0-0-0-0-0-0-0-0-0-|


  D5C#5       F5
  W
|--------------------------------|
|--------------------------------|
|--------------------------------|
|--------------------------------|
|--------------------------------|
|--------------------------------|
|
|     PM------|        PM----|
| S S S S S S  E  +Q   S S S S
|--------------------------------|
|--------------------------------|
|--------------------------------|
|-7s6---------10-(10)------------|
|-5s4----------8--(8)------------|
|-----0-0-0-0----------0-0-0-0---|


  D5C#N.C.                          D5 C#5       B5Bb5
  W                                 +W
|---------------------------------|------------------------------|
|---------------------------------|------------------------------|
|---------------------------------|------------------------------|
|---------------------------------|------------------------------|
|-2-------------------------------|-(2)--------------------------|
|-0-------------------------------|-(0)--------------------------|
|
|     PM------------------------|        PM----|     PM--------|
| S S S S S S S S S S S S S S S S    S S S S S S E E S S S S S S
|---------------------------------|------------------------------|
|---------------------------------|------------------------------|
|---------------------------------|------------------------------|
|-7s6-----------------------------|--7s6---------4p3-------------|
|-5s4-----------------------------|--5s4---------2p1-------------|
|-----0-0-0-0-0-0-0-0-0-0-0-0-0-0-|------0-0-0-0-----0-0-0-0-0-0-|


  D5 C#N.C.                          D5 C#5       F5
  +W                                 +W
|----------------------------------|-------------------------------|
|----------------------------------|-------------------------------|
|----------------------------------|-------------------------------|
|----------------------------------|-------------------------------|
|-(2)------------------------------|-(2)---------------------------|
|-(0)------------------------------|-(0)---------------------------|
|
|      PM------------------------|        PM------|        PM----|
|  S S S S S S S S S S S S S S S S    S S S S S S  E  +Q   S S S S
|----------------------------------|-------------------------------|
|----------------------------------|-------------------------------|
|----------------------------------|-------------------------------|
|--7s6-----------------------------|--7s6---------10-(10)----------|
|--5s4-----------------------------|--5s4----------8--(8)----------|
|------0-0-0-0-0-0-0-0-0-0-0-0-0-0-|------0-0-0-0----------0-0-0-0-|


    D5C#N.C.
    Gtrs I, II
        PM------------------------|
    S S S S S S S S S S S S S S S S
||----------------------------------|
||o---------------------------------|
||----------------------------------|
||--7s6-----------------------------|
||o-5s4-----------------------------|
||------0-0-0-0-0-0-0-0-0-0-0-0-0-0-|


  D5C#5       B5Bb5             D5C#N.C.
      PM----|     PM--------|       PM------------------------|
  S S S S S S E E S S S S S S   S S S S S S S S S S S S S S S S
|-----------------------------|----------------------------------|
|-----------------------------|----------------------------------|
|-----------------------------|----------------------------------|
|-7s6---------4p3-------------|-7s6------------------------------|
|-5s4---------2p1-------------|-5s4------------------------------|
|-----0-0-0-0-----0-0-0-0-0-0-|-----0-0-0-0-0-0-0-0-0-0-0-0-0-0--|


  1.                               2.
  D5C#5       F5                   D5C#5       F5       E5
      PM------|        PM----|         PM------|
  S S S S S S  E  +Q   S S S S     S S S S S S  E  +Q   Q
|-------------------------------||--------------------------||
|------------------------------o||--------------------------||
|-------------------------------||--------------------------||
|-7s6---------10-(10)-----------||-7s6---------10-(10)--9\--||
|-5s4----------8--(8)----------o||-5s4----------8--(8)--7\--||
|-----0-0-0-0----------0-0-0-0--||-----0-0-0-0--------------||


   1st, 2nd, 3rd Verses
    Q=206
    $
    $$
    N.C.                    C5        N.C.            C5      F5
    S S S S S S S S S S S S S S S S   S S S S S S S S S S S S Q
||----------------------------------|-----------------------------|
||o---------------------------------|-----------------------------|
||----------------------------------|-----------------------------|
||--------------------------5p3-----|-----------------5p3-----3---|
||o-------------------------3-------|-----------------3-------3---|
||--3-3-3-3-3-3-3-3-3-3-3-3-----3-3-|-3-3-3-3-3-3-3-3-----3-3-----|


  N.C.                    C5        N.C.            C5      Bb5A5
  S S S S S S S S S S S S S S S S   S S S S S S S S S S S S  E E
|---------------------------------|--------------------------------||
|---------------------------------|-------------------------------o||
|---------------------------------|--------------------------------||
|-------------------------5p3-----|-----------------5p3-----/8-7\--||
|-------------------------3-------|-----------------3-------/8-7\-o||
|-3-3-3-3-3-3-3-3-3-3-3-3-----3-3-|-3-3-3-3-3-3-3-3-----3-3--------||


    N.C.
    S S S S S S S S S S S S S S S S
||----------------------------------|
||o---------------------------------|
||----------------------------------|
||----------------------------------|
||o---------------------------------|
||--7-7-7-7-7-7-7-7-7-7-7-7-7-7-7-7-|


  1.,2.,3.                            4.
                                                          To Coda
                                                              F5
  S S S S S S S S S S S S S S S S     S S S S S S S S S S S S  Q
|----------------------------------||------------------------------|
|---------------------------------o||------------------------------|
|----------------------------------||------------------------------|
|----------------------------------||-------------------------10---|
|-6-6-6-6-5-5-5-5-----------------o||-6-6-6-6-5-5-5-5----------8---|
|-----------------5-5-5-5-8-8-8-8--||-----------------5-5-5-5------|


    N.C.
    Gtr I
    W                                 W
||----------------------------------|-----------------------------------||
||o---------------------------------|----------------------------------o||
||----------------------------------|-----------------------------------||
||----------------------------------|-----------------------------------||
||o---------------------------------|----------------------------------o||
||----------------------------------|-----------------------------------||
|
|   Gtr II
|   S S S S S S S S S S S S S S S S   S S S S S S S S S S S S S S S S
||----------------------------------|-----------------------------------||
||o---------------------------------|----------------------------------o||
||----------------------------------|-----------------------------------||
||----------------------------------|-----------------------------------||
||o---------------------------------|----------------------------------o||
||--0-0-0-0-0-0-0-0-0-0-0-0-0-0-0-0-|-0-0-0-0-0-0-0-0-0-0-0-0-0-0-0-0---||


    Q=192
    D5C#N.C.                          D5C#5       B5Bb5
    Gtrs I, II
        PM------------------------|       PM----|     PM--------|
    S S S S S S S S S S S S S S S S   S S S S S S E E S S S S S S
||----------------------------------|------------------------------|
||o---------------------------------|------------------------------|
||----------------------------------|------------------------------|
||--7s6-----------------------------|-7s6---------4p3--------------|
||o-5s4-----------------------------|-5s4---------2p1--------------|
||------0-0-0-0-0-0-0-0-0-0-0-0-0-0-|-----0-0-0-0-----0-0-0-0-0-0--|


                                                     D.S. al Coda
                                                     D.S. al Coda
  D5C#N.C.                          D5C#5       F5
      PM------------------------|       PM------|        PM----|
  S S S S S S S S S S S S S S S S   S S S S S S  E  +Q   S S S S
|---------------------------------|--------------------------------||
|---------------------------------|-------------------------------o||
|---------------------------------|--------------------------------||
|-7s6-----------------------------|-7s6---------10-(10)------------||
|-5s4-----------------------------|-5s4----------8--(8)-----------o||
|-----0-0-0-0-0-0-0-0-0-0-0-0-0-0-|-----0-0-0-0----------0-0-0-0---||


 Bridge
  &
  Bb5       A5Bb5       A5  C5         A5Bb5       F5
    PM----|     PM----|        PM----|     PM----|
  E S S S S E E S S S S E    E S S S S E E S S S S  E
|-------------------------|---------------------------|
|-------------------------|---------------------------|
|-------------------------|---------------------------|
|-8---------7-8---------7-|-10---------7-8---------10-|
|-8---------7-8---------7-|-10---------7-8----------8-|
|---0-0-0-0-----0-0-0-0---|----0-0-0-0-----0-0-0-0----|


    E5        A5Bb5       A5  C5         A5Bb5       F5
      PM----|     PM----|        PM----|     PM----|
    E S S S S E E S S S S E    E S S S S E E S S S S  E  3x
||--------------------------|----------------------------||
||o-------------------------|---------------------------o||
||--------------------------|----------------------------||
||--9---------7-8---------7-|-10---------7-8---------10--||
||o-7---------7-8---------7-|-10---------7-8----------8-o||
||----0-0-0-0-----0-0-0-0---|----0-0-0-0-----0-0-0-0-----||


    A5        A5Bb5       A5  B5        A5C5         Bb5
      PM----|     PM----|       PM----|      PM----|
    E S S S S E E S S S S E   E S S S S E  E S S S S E  4x
||--------------------------|---------------------------||
||o-------------------------|--------------------------o||
||--------------------------|---------------------------||
||--7---------7-8---------7-|-9---------7-10---------8--||
||o-7---------7-8---------7-|-9---------7-10---------8-o||
||----0-0-0-0-----0-0-0-0---|---0-0-0-0------0-0-0-0----||


 Solo - Hanneman
  Q=210
  C#5  E5Eb5   E5B5    C#5  E5  Eb5   E5B5
  Gtr I
   \2
                                   ~~~
   W                   +Q     Q    H
|--------------------|----------------------|
|--------------------|----------------------|
|--------------------|-------------0--------|
|--------------------|------/12p===0--------|
|--0-----------------|-(0)------------------|
|--------------------|----------------------|
|
| Gtr II
|  Q   E E +E  E E E    Q     E E +E  E E E
|--------------------|----------------------|
|--------------------|----------------------|
|--------------------|----------------------|
|------9-8-(8)-9-----|--------9-8-(8)-9-----|
|-11---7-6-(6)-7-9-9-|-11-----7-6-(6)-7-9-9-|
|--9-------------7-7-|--9---------------7-7-|


  C#5  E5Eb5   E5B5    C#5  E5Eb5       E5     B5
   \1                          \1/  \1/    \1/  \1.5/
                                    |--3---|
   W                   +Q.    +E   +Q     +E   +Q
|--------------------|----------------------------------|
|-[0]----------------|-(0)----(0)--(0)----(0)--(0)------|
|--------------------|----------------------------------|
|--------------------|----------------------------------|
|--------------------|----------------------------------|
|--------------------|----------------------------------|
|
|  Q   E E +E  E E E    Q   E  E   +E   E       E     E
|--------------------|----------------------------------|
|--------------------|----------------------------------|
|--------------------|----------------------------------|
|------9-8-(8)-9-----|------9--8---(8)--9---------------|
|-11---7-6-(6)-7-9-9-|-11---7--6---(6)--7-------9-----9-|
|--9-------------7-7-|--9-----------------------7-----7-|


  C#5  E5Eb5     E5  B5      C#5   E5Eb5   E5B5
   \2                 \1                     \1___/
            |--3---|
   Q.    E  E  E   E  Q       +H.            E   +E
|--------------------------|-----------------0---(0)-|
|--0-----------------10----|-(10)--------------------|
|--------------7---9-------|-------------------------|
|--------9--9--------------|-------------------------|
|--------------------------|-------------------------|
|--------------------------|-------------------------|
|
|  Q   E E +E    E    E  E     Q   E E +E  E E    E
|--------------------------|-------------------------|
|--------------------------|-------------------------|
|--------------------------|-------------------------|
|------9-8-(8)---9---------|-------9-8-(8)-9---------|
|-11---7-6-(6)---7----9--9-|--11---7-6-(6)-7-9----9--|
|--9------------------7--7-|---9-------------7----7--|


  C#5   E5Eb5    E5 B5    C#5  E5Eb5     E5B5
   /1\           \2
   ~~~~~~~~~~~~~~
   H         +E  Q.         H       +Q     S S E
|-12--------(12)--------|-------------------------|
|-----------------------|-------------------------|
|-----------------------|-------------------------|
|-----------------------|-------------------------|
|----------------0------|-------------------------|
|----------------0------|-/12------(12)\---9-9-9--|
|
|  Q    E E  +E  E  E E     Q  E E  +E   E E   E
|-----------------------|-------------------------|
|-----------------------|-------------------------|
|-----------------------|-------------------------|
|-------9-8--(8)-9------|------9-8--(8)--9--------|
|-11----7-6--(6)-7--9-9-|--11--7-6--(6)--7-9---9--|
|--9----------------7-7-|---9--------------7---7--|


  N.C.
              |--3---|   |---3---|   |---3----|
  Q          +Q      E   E   E   E   E   E    E
|-----------------------------------------------------|
|-8b9========(8)-----5---7---5-------5---7---[7]b9====|
|-7b9========(7)-----------------6--------------------|
|-----------------------------------------------------|
|-----------------------------------------------------|
|-----------------------------------------------------|
|
| S    S S S  S  S S   S S S   S   S S S   S        S
|-----------------------------------------------------|
|-----------------------------------------------------|
|-----------------------------------------------------|
|-----------------------------------------------------|
|-----------------------------------------------------|
|-4----4-4-4--4--4-4---4-4-4---4---4-4-4---4--------4-|


   |----3-----|   |---3---|   |---3---|
  +E    +E    E   E   E   E   E   E   E   S S S S   S S S S S S S S S S S S +E.      S
|-------------------------------------------------|----------------------------------------|
|-(7)r==(7)---5---7---5-------5---5---7---5-------|----------------------------------------|
|-------------------------6-----------------6p4---|-6p4------------------------------------|
|-----------------------------------------------7-|-----7-6p4---6p4---4--------------6p====|
|-------------------------------------------------|-----------7-----7---6p4-(4)\-----------|
|-------------------------------------------------|----------------------------------------|
|
|  S  S     S   S S S   S   S S S   S   S S S S S   S S S S S S S S S S S S  S   S S S
|-------------------------------------------------|----------------------------------------|
|-------------------------------------------------|----------------------------------------|
|-------------------------------------------------|----------------------------------------|
|-------------------------------------------------|----------------------------------------|
|--3--3-----3---3-2-2---2---2---------------------|----------------------------------------|
|-----------------------------2-2---2---2-5-5-5-5-|-4-4-4-4-4-4-4-4-4-4-4-4--4---4-4-4-----|


  N.C.
                                              |-----3------|
  S S S S S S S S S S S S S S S S   E.     S +E    E   S   S     +S  +S      +E    +E     S S
|---------------------------------|--------6-(6)-------6---8b10==(8)r(8)b10==(8)---(8)r---8-6-|
|---------------------------6-8-6-|-8--------------8------------------------------------------|
|-------------------5-7-5-7-------|-----------------------------------------------------------|
|-4---6p4---5-7-5-7---------------|-----------------------------------------------------------|
|---7-----7-----------------------|-----------------------------------------------------------|
|---------------------------------|-----------------------------------------------------------|
|
| S S S S S S S S S S S S S S S S   S  S S S  S  S   S   S        S   S       S  S  S   S S S
|---------------------------------|-----------------------------------------------------------|
|---------------------------------|-----------------------------------------------------------|
|---------------------------------|-----------------------------------------------------------|
|---------------------------------|-----------------------------------------------------------|
|---------------------------------|-3--3-3-3--2--2---2---2------------------------------------|
|-4-4-4-4-4-4-4-4-4-4-4-4-4-4-4-4-|-------------------------------2---2-------2--2--5---5-5-5-|


  S S E   S S E   S S E   S S S S
|-8-6-5---6-8-6---5----------------|
|-------------------8-6---5-5------|
|-----------------------------6-7--|
|----------------------------------|
|----------------------------------|
|----------------------------------|
|
| S S S S S S S S S S S S S S S S
|----------------------------------|
|----------------------------------|
|----------------------------------|
|----------------------------------|
|----------------------------------|
|-4-4-4-4-4-4-4-4-4-4-4-4-4-4-4-4--|


  N.C.
                                     TP       TP
  Q          +E    +E       +E       E    E   E
|--------------------------------------------------|
|--------------------------------------------------|
|-7b9========(7)r==(7)b9====(7)r\------------------|
|--------------------------------------------------|
|--------------------------------------------------|
|-----------------------------------/xs==12s==x\---|
|
| S    S S S  S  S  S     S  S    S  S S  S S S  S
|--------------------------------------------------|
|--------------------------------------------------|
|--------------------------------------------------|
|--------------------------------------------------|
|--------------------------------------------------|
|-4----4-4-4--4--4--4-----4--4----4--4-4--4-4-4--4-|


   S  S  S  S  S  S  S  S  S  S  S  S  S  S  E
|------------------------------------------------|
|-------------------------------------------12---|
|----------------------------12----12-14-15------|
|----------12----12-14-12-14----14---------------|
|-14-12-14----14---------------------------------|
|------------------------------------------------|
|
|  S  S  S  S  S  S  S  S  S  S  S  S  S  S  S S
|------------------------------------------------|
|------------------------------------------------|
|------------------------------------------------|
|------------------------------------------------|
|--3--3--3--3--2--2--2--2------------------------|
|--------------------------2--2--2--2--5--5--5-5-|


  N.C.
                                       |----3----|
   S  S  S  S  S  S  S  S  S  S  S  S  E    E    E
|----------------------------------------------------|
|-12-15-15-12----12-15-15-12----12-15-15---12--------|
|-------------14-------------14-----------------14---|
|----------------------------------------------------|
|----------------------------------------------------|
|----------------------------------------------------|
|
|  S  S  S  S  S  S  S  S  S  S  S  S  S S    S    S
|----------------------------------------------------|
|----------------------------------------------------|
|----------------------------------------------------|
|----------------------------------------------------|
|----------------------------------------------------|
|--4--4--4--4--4--4--4--4--4--4--4--4--4-4----4----4-|


   |----3----|    |-3--|       |----3----|    |----3----|
   E    E    E    E    Q       E    E    E    E    E    E
|-------------------------------------------------------------|
|-12---15---13---13---15\---------------15---15---18---15-----|
|-----------------------------17---17-------------------------|
|-------------------------------------------------------------|
|-------------------------------------------------------------|
|-------------------------------------------------------------|
|
|  S S    S    S  S S     S S  S S    S    S  S S    S    S
|-------------------------------------------------------------|
|-------------------------------------------------------------|
|-------------------------------------------------------------|
|-------------------------------------------------------------|
|--3-3----3----3--2-2-----2-2---------------------------------|
|------------------------------2-2----2----2--5-5----5----5---|


  N.C.
    |---3----|    |----3----|    |----3----|    |----3----|
   +Q        E    E    E    E    E    E    E    E    E    E
|-------------------------------------------------------------|
|-(15)\-----18--------18---15---15---15--------18---15---18---|
|----------------17-----------------------17------------------|
|-------------------------------------------------------------|
|-------------------------------------------------------------|
|-------------------------------------------------------------|
|
|   S   S S    S  S S    S    S  S S    S    S  S S    S    S
|-------------------------------------------------------------|
|-------------------------------------------------------------|
|-------------------------------------------------------------|
|-------------------------------------------------------------|
|-------------------------------------------------------------|
|---4---4-4----4--4-4----4----4--4-4----4----4--4-4----4----4-|


  C5       B5       F#5         A5
   |--3--|  |--3--|
   E  E  E  E  E  E  S  S  S  S  S  S  S  S
|--------------------------------------------|
|-18-15-15-18-15-18-15----15-15-18-15-15-16--|
|----------------------17--------------------|
|--------------------------------------------|
|--------------------------------------------|
|--------------------------------------------|
|
|  Q        Q        Q           Q
|--------------------------------------------|
|--------------------------------------------|
|--------------------------------------------|
|--5--------4--------------------------------|
|--3--------2--------4-----------7-----------|
|--------------------2-----------5-----------|


  D5     C#N.C.                               D5C#5       B5Bb5
   ~~~~~~
   E        +E      Q       H                 W
|-20b22====(20)r\---------------------------|-----------------------------|
|-------------------------------------------|-----------------------------|
|-------------------------------------------|-----------------------------|
|-------------------------------------------|-----------------------------|
|-------------------------------------------|-----------------------------|
|-------------------------------------------|-----------------------------|
|
|            PM---------------------------|       PM----|     PM--------|
|  S     S   S    S S S S S S S S S S S S S   S S S S S S E E S S S S S S
|-------------------------------------------|-----------------------------|
|-------------------------------------------|-----------------------------|
|-------------------------------------------|-----------------------------|
|--7s====6----------------------------------|-7s6---------4p3-------------|
|--5s====4----------------------------------|-5s4---------2p1-------------|
|------------0----0-0-0-0-0-0-0-0-0-0-0-0-0-|-----0-0-0-0-----0-0-0-0-0-0-|


  D5C#N.C.                          D5C#5       F5
  W                                 W
|---------------------------------|------------------------------|
|---------------------------------|------------------------------|
|---------------------------------|------------------------------|
|---------------------------------|------------------------------|
|---------------------------------|------------------------------|
|---------------------------------|------------------------------|
|
|     PM------------------------|       PM------|        PM----|
| S S S S S S S S S S S S S S S S   S S S S S S  E  +Q   S S S S
|---------------------------------|------------------------------|
|---------------------------------|------------------------------|
|---------------------------------|------------------------------|
|-7s6-----------------------------|-7s6---------10-(10)----------|
|-5s4-----------------------------|-5s4----------8--(8)----------|
|-----0-0-0-0-0-0-0-0-0-0-0-0-0-0-|-----0-0-0-0----------0-0-0-0-|


  D5C#N.C.                          D5C#5       B5Bb5
  Gtrs I, II
      PM------------------------|       PM----|     PM--------|
  S S S S S S S S S S S S S S S S   S S S S S S E E S S S S S S
|---------------------------------|-----------------------------|
|---------------------------------|-----------------------------|
|---------------------------------|-----------------------------|
|-7s6-----------------------------|-7s6---------4p3-------------|
|-5s4-----------------------------|-5s4---------2p1-------------|
|-----0-0-0-0-0-0-0-0-0-0-0-0-0-0-|-----0-0-0-0-----0-0-0-0-0-0-|


                                              D.S.S. al Dbl. Coda
  D5C#N.C.                          D5C#5       F5
      PM------------------------|       PM------|        PM----|
  S S S S S S S S S S S S S S S S   S S S S S S  E  +Q   S S S S
|---------------------------------|-------------------------------|
|---------------------------------|-------------------------------|
|---------------------------------|-------------------------------|
|-7s6-----------------------------|-7s6---------10-(10)-----------|
|-5s4-----------------------------|-5s4----------8--(8)-----------|
|-----0-0-0-0-0-0-0-0-0-0-0-0-0-0-|-----0-0-0-0----------0-0-0-0--|


    &&
    E5        E5F#5        F#5  G5 N.C.                    Eb5
      PM----|      PM----|         PM--------------------|
    E S S S S E  E S S S S  E    E S S S S S S S S S S S S E   4x
||----------------------------|--------------------------------||
||o---------------------------|-------------------------------o||
||----------------------------|--------------------------------||
||--9---------9-11---------11-|-12-------------------------8---||
||o-7---------7--9----------9-|-10-------------------------6--o||
||----0-0-0-0------0-0-0-0----|----0-0-0-0-0-0-0-0-0-0-0-0-----||


                                1.,2.,3.
    E5        E5F5         F5   F#5        F#5G5         Eb5
      PM----|      PM----|         PM----|       PM----|
    E S S S S E  E S S S S  E    E S S S S  E  E S S S S E
||----------------------------|-----------------------------||
||o---------------------------|----------------------------o||
||----------------------------|-----------------------------||
||--9---------9-10---------10-|-11---------11-12---------8--||
||o-7---------7--8----------8-|--9----------9-10---------6-o||
||----0-0-0-0------0-0-0-0----|----0-0-0-0-------0-0-0-0----||


 Solo - King
  4.
  G5         F#5F5         G5
  Gtr I
     PM----|       PM----|
   E S S S S  E  E S S S S  E
|------------------------------|
|------------------------------|
|------------------------------|
|-12---------11-10-------------|
|-10----------9--8----------5--|
|----0-0-0-0-------0-0-0-0--3--|
|
| Gtr II
|    PM----|       PM----|
|  E S S S S  E  E S S S S  E
|------------------------------|
|------------------------------|
|--------------------------[2]s|
|-12---------11-10-------------|
|-10----------9--8-------------|
|----0-0-0-0-------0-0-0-0-----|


  F5
   S  S S S S S   S   S   S  S   S  S   S  S S S
|------------------------------------------------|
|------------------------------------------------|
|------------------------------------------------|
|------------------------------------------------|
|--3--3-3-3-3-3---3---3---3--3---3--3---3--3-3-3-|
|--1--1-1-1-1-1---1---1---1--1---1--1---1--1-1-1-|
|
|                 \1/                   \2
|  ~~~                                  ~~~~
|  Q.            +E      +E     +E     +Q
|------------------------------------------------|
|------------------------------------------------|
|-11------------(11)----(11)---(11)---(11)-------|
|------------------------------------------------|
|------------------------------------------------|
|------------------------------------------------|


  C5        B5    C5      D5          G#5   G5
  |-------3-------|
  Q         Q     Q       Q           E     E
|-----------------------------------------------|
|-----------------------------------------------|
|-----------------------------------------------|
|-5---------4-----5-------7---------------------|
|-3---------2-----3-------5-----------6-----5---|
|-------------------------------------4-----3---|
|
| \2/   \3/         \1/   \2______\3______|
|                                         ~~~~~~~
| |---------7:8---------| |--------7:8--------|
| S   S S     S S   S   S S   S S S     S S   S
|-----------------------------------------------|
|-----------------------------------------------|
|-----------------------------------------------|
|-3p==0h3p====0h3p==0h==3p0h==3p0h3p====0h3p==0h|
|-----------------------------------------------|
|-----------------------------------------------|


  F5
  S   S   S   S   S     S   S   S S   S S S S S S S
|----------------------------------------------------|
|----------------------------------------------------|
|----------------------------------------------------|
|----------------------------------------------------|
|-3---3---3---3---3-----3---3---3-3---3-3-3-3-3-3-3--|
|-1---1---1---1---1-----1---1---1-1---1-1-1-1-1-1-1--|
|
| \6____/           \3____/       \2__/
|           ~~~~~~~                     ~~~~
| |------------7:8------------|
| S     S   S   S   S     S   S   S   S S S S S S S
|----------------------------------------------------|
|----------------------------------------------------|
|----------------------------------------------------|
|-3p====0h==3p==0h==3p====0h==3p==0h==3p0h3-0h3p0h7\-|
|----------------------------------------------------|
|----------------------------------------------------|


  C5        B5     C5D5 G#5 G5
    |------3-------|
    Q       Q      Q Q   E    E
|-------------------------------|
|-------------------------------|
|-------------------------------|
|---5-------4------5-7----------|
|---3-------2------3-5---6----5-|
|------------------------4----3-|
|
|       /1\
|       ~~~~~~~~~~~
|   E   E      +H        E    E
|---------------------------/10-|
|-------------------------------|
|-/15-/22-----(22)------22\-----|
|-------------------------------|
|-------------------------------|
|-------------------------------|


  F5
   S  S  S  S  S     S     S     S     S  S  S  S   S  S  S     S
|---------------------------------------------------------------------|
|---------------------------------------------------------------------|
|---------------------------------------------------------------------|
|---------------------------------------------------------------------|
|--3--3--3--3--3-----3-----3-----3-----3--3--3--3---3--3--3-----3-----|
|--1--1--1--1--1-----1-----1-----1-----1--1--1--1---1--1--1-----1-----|
|
|  T     T     T     T     T     T     T     T            T     T
|  S  S  S  S  T  T  T  T  T  T  T  T  S  S  S  S  +E     T  T  T  T
|-19p10-19p15-19p10-19p10-19p10-19p15-19p10-19p10-(10)---19p10-19p10--|
|---------------------------------------------------------------------|
|---------------------------------------------------------------------|
|---------------------------------------------------------------------|
|---------------------------------------------------------------------|
|---------------------------------------------------------------------|


  C5   B5C5   D5          G#5  G5
   |--3--|
   Q   Q Q     Q            E   E
|------------------------------------|
|------------------------------------|
|------------------------------------|
|--5---4-5-----7---------------------|
|--3---2-3-----5------------6---5----|
|---------------------------4---3----|
|
|  /1\
|  ~~~~
|  Q..      S  S  S  S  S  +E   S  S
|-22-------19-22-22-19-21-(21)-19-19-|
|------------------------------------|
|------------------------------------|
|------------------------------------|
|------------------------------------|
|------------------------------------|


  F5
   S    S    S    S     S  S  S  S  S  S S  S  S  S  S  S
|----------------------------------------------------------|
|----------------------------------------------------------|
|----------------------------------------------------------|
|----------------------------------------------------------|
|--3----3----3----3-----3--3--3--3--3--3-3--3--3--3--3--3--|
|--1----1----1----1-----1--1--1--1--1--1-1--1--1--1--1--1--|
|
|  |--------5--------|
|  S  S    S    S    S  S  S  S  S  S  S S  S  S  S  S  S
|-22-22---21--------19-------------------------------------|
|--------------22------22-21-19-21-21-19-------------------|
|----------------------------------------x-19-21-21-19-18--|
|----------------------------------------------------------|
|----------------------------------------------------------|
|----------------------------------------------------------|


  C5       B5         C5      D5          G#5   G5
   |--------3---------|
   Q       Q          Q        Q           E     E
|-----------------------------------------------------|
|-----------------------------------------------------|
|-----------------------------------------------------|
|--5-------4----------5--------7----------------------|
|--3-------2----------3--------5-----------6-----5----|
|------------------------------------------4-----3----|
|
|                                             T     T
|  S  S  S    S  S  S    S  S  S  S  S  S  S  S  S  S
|-----------------------------------------------------|
|-----------------------------------------------------|
|-21-21-19---18-20-18---18-16----------------21p14-21p|
|-----------------------------19-19-17-16-17----------|
|-----------------------------------------------------|
|-----------------------------------------------------|


  F5
   S  S  S  S  S S  S  S  S  S  S  S  S  S  S  S
|------------------------------------------------|
|------------------------------------------------|
|------------------------------------------------|
|------------------------------------------------|
|--3--3--3--3--3-3--3--3--3--3--3--3--3--3--3--3-|
|--1--1--1--1--1-1--1--1--1--1--1--1--1--1--1--1-|
|
|     T     T
|  S  S  S  S  E    S  S  S  S  S  S  S  S  S  S
|------------------------------------------------|
|------------------------------------------------|
|-14-21p14-21p14---18-18-21-21-19-20-21-21-18-18-|
|------------------------------------------------|
|------------------------------------------------|
|------------------------------------------------|


  C5       B5         C5      D5          G#5 G5
   |--------3---------|
   Q       Q          Q        Q          E    E
|------------------------------------------------|
|------------------------------------------------|
|------------------------------------------------|
|--5-------4----------5--------7-----------------|
|--3-------2----------3--------5----------6----5-|
|-----------------------------------------4----3-|
|
|  S  S  S    S  S  S    S  S  S  S  S  S S S  E
|------------------------------------------------|
|---------------------------------------------17-|
|-19-19-16---16-18-18---15-16-15-16-15-16-x-x----|
|------------------------------------------------|
|------------------------------------------------|
|------------------------------------------------|


  F5
   S     S S S S S S S S S S S   S   S S  S
|--------------------------------------------|
|--------------------------------------------|
|--------------------------------------------|
|--------------------------------------------|
|--3-----3-3-3-3-3-3-3-3-3-3-3---3---3-3--3--|
|--1-----1-1-1-1-1-1-1-1-1-1-1---1---1-1--1--|
|
|  ~~~~~~
|  H.                           +S   S E
|--------------------------------------------|
|-17b19========================(17)r17-------|
|--------------------------------------------|
|--------------------------------------x\----|
|--------------------------------------x\----|
|--------------------------------------x\----|


  C5 B5C5D5 G#5   G5    F5
  |-3--|
  Q  Q Q Q  E     E      S  S   S S  S  S   S   S S S   S   S S S   S   S
|---------------------|----------------------------------------------------|
|---------------------|----------------------------------------------------|
|---------------------|----------------------------------------------------|
|-5--4-5-7------------|----------------------------------------------------|
|-3--2-3-5--6-----5---|--3--3---3-3--3--3---3---3-3-3---3---3-3-3---3---3--|
|-----------4-----3---|--1--1---1-1--1--1---1---1-1-1---1---1-1-1---1---1--|
|
|           \3______________\5____________|
|                                         ~~~~~~~~~~~~~~~~~~~~~~~~~~~~~~
|           |---3---|                |---3----|   |---3---|   |---3---|
| H.        E   E   E   +S  S   S S +E    E   E   E   E   E   E   E   E
|---------------------|----------------------------------------------------|
|---------------------|----------------------------------------------------|
|-----------7p==5p==0-|-(0)h7p==5p0-(0)h==7p==5p==0h==7p==5p==0h==7p==5----|
|-x\------------------|----------------------------------------------------|
|-x\------------------|----------------------------------------------------|
|-x\------------------|----------------------------------------------------|


  C5    B5      C5      D5    G#5 G5
  |------3------|
  Q     Q       Q       Q     E   E
|---------------------------------------|
|---------------------------------------|
|---------------------------------------|
|-5-----4-------5-------7---------------|
|-3-----2-------3-------5-----6---5-----|
|-----------------------------4---3-----|
|
| \2/ |   \3/       \3__|           /1\
|                         ~~~~~~~~~~~
| |--3--|               |-3-|
| E   E E S   S   S S   E E E S S S S
|---------------------------------------|
|---------------------------------------|
|-0h==7p5p0h==7p==5p0h==7p5p0h7p5p0h7---|
|---------------------------------------|
|---------------------------------------|
|---------------------------------------|


  F5
   S  S S   S S S S     S S S S S S S S S
|-------------------------------------------|
|-------------------------------------------|
|-------------------------------------------|
|-------------------------------------------|
|--3--3-3---3-3-3-3-----3-3-3-3-3-3-3-3-3---|
|--1--1-1---1-1-1-1-----1-1-1-1-1-1-1-1-1---|
|
|                   \4____|
|  ~~~~~~~~~~~~~
|  |--3---|   |--3--|
| +Q      E   Q     E     S S S S S S S S
|-------------------------------------------|
|-------------------------------------------|
|-(7)-----5---0-----7p====5p0h7p5p0h7p5p0\--|
|-------------------------------------------|
|-------------------------------------------|
|-------------------------------------------|


  H.=H
  F5                                              G5         F#5
   Q     Q     Q                    Q             W          Q  +Q    H
|-----------------------------------------------|----------|---------------*|
|-----------------------------------------------|----------|---------------*|
|-----------------------------------------------|----------|---------------*|
|-----------------------------------------------|----------|---------------*|
|-/3\---/3\---/3\------------------/3\----------|-5--------|-4--(4)\-------*|
|-/1\---/1\---/1\------------------/1\----------|-3--------|-2--(2)\-------*|
|
|  /1\              /1.5\   /1.5\   \0.5/
|  H          +E   +S      +S      +E      S  S   W          W
|-----------------------------------------------|----------|---------------*|
|-----------------------------------------------|----------|---------------*|
|-24---------(24)-(24)----(24)----(24)s===15S11-|----------|---------------*|
|-----------------------------------------------|----------|---------------*|
|-----------------------------------------------|----------|---------------*|
|-----------------------------------------------|----------|---------------*|



Duration Legend
---------------
W - whole; H - half; Q - quarter; E - 8th; S - 16th; T - 32nd; X - 64th; a - acciaccatura
+ - note tied to previous; . - note dotted; .. - note double dotted
Uncapitalized letters represent notes that are staccato (1/2 duration)
Irregular groupings are notated above the duration line
Duration letters will always appear directly above the note/fret number it represents the
duration for.  Duration letters with no fret number below them represent rests.  Multi-
bar rests are notated in the form Wxn, where n is the number of bars to rest for.  Low
melody durations appear below the staff

Tablature Legend
----------------
 h   - hammer-on
 p   - pull-off
 b   - bend
 pb  - pre-bend
 r   - bend release (if no number after the r, then release immediately)
 /\  - slide into or out of (from/to "nowhere")
 s   - legato slide
 S   - shift slide
 - natural harmonic
[n]  - artificial harmonic
n(n) - tapped harmonic
 ~   - vibrato
 tr  - trill
 T   - tap
 TP  - trem. picking
 PM  - palm muting
\n/  - tremolo bar dip; n = amount to dip
 \n  - tremolo bar down
 n/  - tremolo bar up
/n\  - tremolo bar inverted dip
 =   - hold bend; also acts as connecting device for hammers/pulls
 <> - volume swell (louder/softer)
 x   - on rhythm slash represents muted slash
 o   - on rhythm slash represents single note slash

Misc Legend
-----------
 |  - bar
||  - double bar
||o - repeat start
o|| - repeat end
*|  - double bar (ending)
 :  - bar (freetime)
 $  - Segno
 &  - Coda
Tempo markers -  = BPM(8/16=s8/s16), where s8 = swing 8ths, s16 = swing 16ths

Tap to rate this tab
# A B C D E F G H I J K L M N O P Q R S T U V W X Y Z