Song name
# A B C D E F G H I J K L M N O P Q R S T U V W X Y Z

Slayer - Eyes Of The Insane tab

Artist: Slayer
Song: Eyes of the Insane
Album: Christ Illusion
Tabber: iAmVincent
Tuning: Drop B
Legend: * = tremolo picking
        b = bend
        r = release a bend
        pb = bend before plucking
        h = hammer-on
        p = pull-off
        / = slide up
        \ = slide down
        ~ = vibrato
        wd = whammy dive

My favorite song on the album.  Enjoy!

VERSE
Guitar 1
Db|---------------------------------|
Ab|---------------------------------|
E |---------------------------------|
B |---------------------------------|
Gb|---------------------------------|
B |-0-0-0-0-0-0-0-0-0-0-0-0-0-0-0-0-|

Guitar 2
Db|---------------------------------|
Ab|---------------------------------|
E |---------------------------------|
B |-0-0-2---3-----------------------|
Gb|-------------4-4-4-4-4-4-4-4-4-4-|
B |---------------------------------|

PRECHORUS A
Both Guitars
Db|-----------------|
Ab|-----------------|
E |-----------------|
B |-----------------|
Gb|-0-1-4-3-0-1-0-3-|
B |-0-1-4-3-0-1-0-3-|

PRECHORUS B
Both Guitars
Db|-----------------|
Ab|-----------------|
E |-----------------|
B |-----------------|
Gb|-0-1-4-3-0-1-2-1-|
B |-0-1-4-3-0-1-2-1-|

CHORUS A
Both Guitars
Db|-------------|
Ab|-------------|
E |-1-1-1-1-1---|
B |-0-0-0-0-0---|
Gb|-------------|
B |-------------|

CHORUS B
Both Guitars
Db|-----------------|
Ab|-----------------|
E |-1-1-1-1-1-1-1-1-|
B |-0-0-0-0-0-0-0-0-|
Gb|-----------------|
B |-----------------|

FILL
Guitar 1
Db|-----------------|
Ab|-----------------|
E |-----------------|
B |-----------------|
Gb|-----------------|
B |-----------------|

Guitar 2
Db|-----------------|
Ab|-----------------|
E |-----------------|
B |-------0-----2-1-|
Gb|-----0---1-0-----|
B |-0-3-------------|

PRESOLO
Guitar 1
Db|---------------------------------------------------|
Ab|---------------------------------------------------|
E |---------------------------------------------------|
B |---------------------------------------------------|
Gb|-----------------------------------------------0---|
B |-0-0--0-0--0-0--0-0--0--0--0-0--0-0--0-0--0-0--0---|
  PM............................................

Guitar 2
Db|---------------------------------------------------|
Ab|---------------------------------------------------|
E |---------------------------------------------------|
B |---------------------------------------------------|
Gb|----------------------------------------------17wd-|
B |---------------------------------------------------|

SOLO
Guitar 1 (Two separate riffs, figure out when to play them)
Db|------------------------|---------|
Ab|------------------------|---------|
E |------------------------|---------|
B |------------------------|---------|
Gb|---------------------0--|-1---2---|
B |-0-0--0-0--0-0--0-0--0--|-1---2---|
  PM..................

Guitar 2 (Wah, Arranged for one guitar)
Db|-------------------------------17*--16*-----17*--16*-----20b22-pb22~~~-|
Ab|----------------------------------------18*----------18*---------------|
E |-7*---7-10-9*---7-10-7*---7-10-----------------------------------------|
B |-----------------------------------------------------------------------|
Gb|-----------------------------------------------------------------------|
B |-----------------------------------------------------------------------|

-15--19p17p15--16-20p18p16--17-21p19p17--18-22p20p18-22\-|
---------------------------------------------------------|
---------------------------------------------------------|
---------------------------------------------------------|
---------------------------------------------------------|
---------------------------------------------------------|

-19p17p16-------------------------------------------------------------|
----------19p16-19p16-17p16-19p17p16----------------------------------|
-------------------------------------18p16p15-16h18-15-13-14h17-14-13-|
----------------------------------------------------------------------|
----------------------------------------------------------------------|
----------------------------------------------------------------------|

-----------------------------------------------------|
-----------------------------------------------------|
------------------------------------------6-----7--6-|
13-12h13h15-12h13h15-12h13h15-13p12-8--7-----8-------|
-----------------------------------------------------|
-----------------------------------------------------|

----------------------------------------10-11-10----10-11-13-15-16-18-23-23-21b23~~~-|
---------------------9-10-10/13-13-12~~~---------12----------------------------------|
-------------------------------------------------------------------------------------|
-10p7-10p7-10p7-10p7-----------------------------------------------------------------|
-------------------------------------------------------------------------------------|
-------------------------------------------------------------------------------------|

-20p18p17-------------17h18-20p18p17----------------------------------21-------------------|
----------20p17-18h20----------------20p17-18h20-19h21-18h21-22-23-24----24p23p21----------|
----------------------------------------------------------------------------------22h23-23-|
-------------------------------------------------------------------------------------------|
-------------------------------------------------------------------------------------------|
-------------------------------------------------------------------------------------------|

------------------------|
-20b21r20b21r20b21r20---|
-20b21r20b21r20b21r20---|
------------------------|
------------------------|
------------------------|

----------------------------------------------------------------------------------|
-18-15-------------19-16-------------20-17-------------21-18----------------------|
-------18-16-14----------19-17-15----------20-18-16----------21-19-17-------------|
----------------18----------------19----------------20----------------21-21~~~21~-|
----------------------------------------------------------------------------------|
----------------------------------------------------------------------------------|

-16p14p12-16p14p12-17p15p13-18p16p14-19p17p15-20p18p16-21p19p17-21p19p17------|
------------------------------------------------------------------------------|
------------------------------------------------------------------------------|
------------------------------------------------------------------------------|
------------------------------------------------------------------------------|
-------------------------------------------------------------------------12wd-|

SONG ORDER
Verse x8
Prechorus A x4
Verse x8
Prechorus A x4
Prechorus B x4
Chorus A x5
Chorus B
Fill
Prechorus A x4
Prechorus B x4
Chorus A x5
Chorus B
Fill
Presolo
Solo
Chorus A x5
Chorus B
Fill
Verse x8
Prechorus A x4
Prechorus B x4

E-mail me at iAmVincent2@yahoo.com if you have any questions or comments.
Tap to rate this tab
# A B C D E F G H I J K L M N O P Q R S T U V W X Y Z