Song name
# A B C D E F G H I J K L M N O P Q R S T U V W X Y Z

Slayer - Black Magic tab

#----------------------------------PLEASE NOTE---------------------------------#
#This file is the author's own work and represents their interpretation of the #
#song. You may only use this file for private study, scholarship, or research. #
#------------------------------------------------------------------------------#

BLACK MAGIC
As recorded by Slayer
(From the 1983 Album SHOW NO MERCY)

Transcribed by cbliss66@aol.com
	

Words by K.King Music by K.King , J.Hanneman
Arranged by Slayer

Gtr I (E A D G B E) - 'K.King'
Gtr II (E A D G B E) - 'J.Hanneman'
Gtr III (E A D G B E) - 'Solo.Gtr.'
Gtr IV (E A D G B E) - 'Sol.Gtr.II'
Gtr V (E A D G B E) - 'Pick Slides'

   Intro
    Fast  Q=164
    N.C.(E)
   4/4
    Gtr I
    S S S S S S S S S S S S S S S S 12x     S S S S S S S S S S S S S S S S   4x
||-----------------------------------||-||------------------------------------||
||o---------------------------------o||-||o----------------------------------o||
||-----------------------------------||-||------------------------------------||
||-----------------------------------||-||------------------------------------||
||o---------------------------------o||-||o----------------------------------o||
||--0-0-0-0-0-0-0-0-0-0-0-0-0-0-0-0--||-||--0-0-0-0-0-0-0-0-0-0-0-0-0-0-0-0---||


    N.C.(E)
            ~~~~~~
    S S S S E +E  S S S S E E
||----------------------------|
||o---------------------------|
||----------------------------|
||----------------------------|
||o---------7-(7)---------7-8-|
||--0-0-0-0-------0-0-0-0-----|
|
|   Gtr II
|   W
||----------------------------|
||o---------------------------|
||----------------------------|
||----------------------------|
||o---------------------------|
||----------------------------|


 1.,2.,3.                     4.
 5/4
  S S S S E E  E Q   E E E  4x S S S S E E  E  Q   E E E
|---------------------------||----------------------------|
|--------------------------o||----------------------------|
|---------------------------||----------------------------|
|---------------------------||----------------------------|
|---------7-8-10-8-----8-7-o||---------7-8-10--8-----8-7--|
|-0-0-0-0-----------10------||-0-0-0-0------------10------|
|
|                                      <
| W                         4x Q       Q   +H.
|---------------------------||----------------------------|
|--------------------------o||----------------------------|
|---------------------------||----------------------------|
|---------------------------||----------------------------|
|--------------------------o||----------------------------|
|---------------------------||---------0---(0)------------|


    (E)     E5              F5           E5            C5D5
   4/4
    Gtrs I, II
            ~~~~~~                       ~~~~~~
    S S S S E +E  S S S S E  E   S S S S E +E  S S S S E E  4x
||-----------------------------|----------------------------||
||o----------------------------|---------------------------o||
||-----------------------------|----------------------------||
||----------9-(9)---------9-10-|---------9-(9)---------5-7--||
||o---------7-(7)---------7--8-|---------7-(7)---------3-5-o||
||--0-0-0-0-------0-0-0-0------|-0-0-0-0-------0-0-0-0------||


      N.C.(E)
              ~~~~~~
      S S S S E +E  S S S S E E
|-||----------------------------|
|-||o---------------------------|
|-||----------------------------|
|-||----------------------------|
|-||o---------7-(7)---------7-8-|
|-||--0-0-0-0-------0-0-0-0-----|


                               Fa
 5/4
  S S S S E E  E Q   E E E
|---------------------------||-||
|--------------------------o||-||
|---------------------------||-||
|---------------------------||-||
|---------7-8-10-8-----8-7-o||-||
|-0-0-0-0-----------10------||-||


 ster Q=180
  E5                                                  F5
 4/4
  Gtr I
  E S S S S S S S S S S S S S S   E S S S S E S S S S  Q
|-------------------------------|-------------------------|
|-------------------------------|-------------------------|
|-------------------------------|-------------------------|
|-9-----------------------------|-9---------9---------10--|
|-7-----------------------------|-7---------7----------8--|
|---0-0-0-0-0-0-0-0-0-0-0-0-0-0-|---0-0-0-0---0-0-0-0-----|


  E5                              G5    Gb5   F5
  E S S S S S S S S S S S S S S    Q.    Q.    Q
|-------------------------------|-----------------|
|-------------------------------|-----------------|
|-------------------------------|-----------------|
|-9-----------------------------|-12----11----10--|
|-7-----------------------------|-10-----9-----8--|
|---0-0-0-0-0-0-0-0-0-0-0-0-0-0-|-----------------|
|
| Gtr II
| W                                W
|-------------------------------|-----------------|
|-------------------------------|-----------------|
|-------------------------------|-----------------|
|-------------------------------|-----------------|
|-------------------------------|-----------------|
|-------------------------------|-----------------|


  E5
  E S S S S S S S S S  S S S S S
|---------------------------------|
|---------------------------------|
|---------------------------------|
|-9-------------------------------|
|-7-------------------------------|
|---0-0-0-0-0-0-0-0-0--0-0-0-0-0--|
|
| E H               Q.
|---------------------------------|
|---------------------------------|
|---------------------------------|
|-9-------------------------------|
|-7-------------------------------|
|---------------------------------|


  E5                  F5    E5                               G5   Gb5  F5
  E S S S S E S S S S  Q    E S S S S S S S S S  S S S S S   Q.   Q.   Q
|-------------------------|--------------------------------|--------------||
|-------------------------|--------------------------------|--------------||
|-------------------------|--------------------------------|--------------||
|-9---------9---------10--|-9------------------------------|--------------||
|-7---------7----------8--|-7------------------------------|-5----4----3--||
|---0-0-0-0---0-0-0-0-----|---0-0-0-0-0-0-0-0-0--0-0-0-0-0-|-3----2----1--||
|
| E Q       E Q        Q    E H               Q.             Q.   Q.   Q
|-------------------------|--------------------------------|--------------||
|-------------------------|--------------------------------|--------------||
|-------------------------|--------------------------------|--------------||
|-9---------9---------10--|-9------------------------------|--------------||
|-7---------7----------8--|-7------------------------------|-5----4----3--||
|-------------------------|--------------------------------|-3----2----1--||


  E5
  Gtrs I, II
  E S S S S S S S S S S S S S S
|-------------------------------|
|-------------------------------|
|-------------------------------|
|-9-----------------------------|
|-7-----------------------------|
|---0-0-0-0-0-0-0-0-0-0-0-0-0-0-|


                      F5    E5
  E S S S S E S S S S  Q    E S S S S S S S S S S S S S S
|-------------------------|-------------------------------|
|-------------------------|-------------------------------|
|-------------------------|-------------------------------|
|-9---------9---------10--|-9-----------------------------|
|-7---------7----------8--|-7-----------------------------|
|---0-0-0-0---0-0-0-0-----|---0-0-0-0-0-0-0-0-0-0-0-0-0-0-|


  G5    Gb5   F5    E5                                                  F5
   Q.    Q.    Q    E S S S S S S S S S S S S S S   E S S S S E S S S S  Q
|-----------------|-------------------------------|-------------------------|
|-----------------|-------------------------------|-------------------------|
|-----------------|-------------------------------|-------------------------|
|-12----11----10--|-9-----------------------------|-9---------9---------10--|
|-10-----9-----8--|-7-----------------------------|-7---------7----------8--|
|-----------------|---0-0-0-0-0-0-0-0-0-0-0-0-0-0-|---0-0-0-0---0-0-0-0-----|


  E5                              G5   Gb5  F5
  E S S S S S S S S S S S S S S   Q.   Q.   Q
|-------------------------------|--------------|
|-------------------------------|--------------|
|-------------------------------|--------------|
|-9-----------------------------|--------------|
|-7-----------------------------|-5----4----3--|
|---0-0-0-0-0-0-0-0-0-0-0-0-0-0-|-3----2----1--|


   1st and 2nd Verses
    E5
    E S S S S S S S S S S S S S S
||---------------------------------|
||o--------------------------------|
||---------------------------------|
||--9------------------------------|
||o-7------------------------------|
||----0-0-0-0-0-0-0-0-0-0-0-0-0-0--|


                      F5    E5                              G5    Gb5   F5
  E S S S S E S S S S  Q    E S S S S S S S S S S S S S S    Q.    Q.    Q
|-------------------------|-------------------------------|-----------------|
|-------------------------|-------------------------------|-----------------|
|-------------------------|-------------------------------|-----------------|
|-9---------9---------10--|-9-----------------------------|-12----11----10--|
|-7---------7----------8--|-7-----------------------------|-10-----9-----8--|
|---0-0-0-0---0-0-0-0-----|---0-0-0-0-0-0-0-0-0-0-0-0-0-0-|-----------------|


  E5
  E S S S S S S S S S S S S S S
|-------------------------------|
|-------------------------------|
|-------------------------------|
|-9-----------------------------|
|-7-----------------------------|
|---0-0-0-0-0-0-0-0-0-0-0-0-0-0-|


                      F5    E5
  E S S S S E S S S S  Q    E S S S S S S S S S S S S S S
|-------------------------|-------------------------------|
|-------------------------|-------------------------------|
|-------------------------|-------------------------------|
|-9---------9---------10--|-9-----------------------------|
|-7---------7----------8--|-7-----------------------------|
|---0-0-0-0---0-0-0-0-----|---0-0-0-0-0-0-0-0-0-0-0-0-0-0-|


  G5   Gb5  F5   N.C.(A)
  Q.   Q.   Q    S S S S S S S S S S S S S S S S
|--------------|---------------------------------|
|--------------|---------------------------------|
|--------------|---------------------------------|
|--------------|---------------------------------|
|-5----4----3--|---------------------------------|
|-3----2----1--|-5-5-5-5-5-5-5-5-5-5-5-5-5-5-5-5-|


  (B)
  S S S S S S S S S S S S S S S S
|-----------------------------------|
|-----------------------------------|
|-----------------------------------|
|-----------------------------------|
|-----------------------------------|
|-7-7-7-7-7-7-7-7-7-7-7-7-7-7-7-7---|


  (Gb)
  S S S S S S S S S S S S S S S S
|---------------------------------|
|---------------------------------|
|---------------------------------|
|---------------------------------|
|---------------------------------|
|-2-2-2-2-2-2-2-2-2-2-2-2-2-2-2-2-|


  (G)                               E5
  S S S S S S S S S S S S S S S S   E S S S S S S S S S S S S S S
|---------------------------------|--------------------------------|
|---------------------------------|--------------------------------|
|---------------------------------|--------------------------------|
|---------------------------------|-9------------------------------|
|---------------------------------|-7------------------------------|
|-3-3-3-3-3-3-3-3-3-3-3-3-3-3-3-3-|---0-0-0-0-0-0-0-0-0-0-0-0-0-0--|


  E5                  F5    E5                              G5    Gb5   F5
  E S S S S E S S S S  Q    E S S S S S S S S S S S S S S    Q.    Q.    Q
|-------------------------|-------------------------------|-----------------|
|-------------------------|-------------------------------|-----------------|
|-------------------------|-------------------------------|-----------------|
|-9---------9---------10--|-9-----------------------------|-12----11----10--|
|-7---------7----------8--|-7-----------------------------|-10-----9-----8--|
|---0-0-0-0---0-0-0-0-----|---0-0-0-0-0-0-0-0-0-0-0-0-0-0-|-----------------|


  E5
  E S S S S S S S S S S S S S S
|-------------------------------|
|-------------------------------|
|-------------------------------|
|-9-----------------------------|
|-7-----------------------------|
|---0-0-0-0-0-0-0-0-0-0-0-0-0-0-|


                      F5    E5
  E S S S S E S S S S  Q    E S S S S S S S S S S S S S S
|-------------------------|-------------------------------|
|-------------------------|-------------------------------|
|-------------------------|-------------------------------|
|-9---------9---------10--|-9-----------------------------|
|-7---------7----------8--|-7-----------------------------|
|---0-0-0-0---0-0-0-0-----|---0-0-0-0-0-0-0-0-0-0-0-0-0-0-|


                      Bridge (verse3)
  G5   (Gb) F5         N.C.(A)
  Q.   Q.   Q          S S S S S S S S S S S S S S S S
|---------------||-||----------------------------------|
|--------------o||-||o---------------------------------|
|---------------||-||----------------------------------|
|---------------||-||----------------------------------|
|-5----4----3--o||-||o-0-0-0-0-0-0-0-0-0-0-0-0-0-0-0-0-|
|-3----2----1---||-||----------------------------------|


  D5/A      A         G
  E S S S S E S S S S Q   4x
|-------------------------||
|------------------------o||
|-7---------6---------4---||
|-7---------7---------5---||
|---0-0-0-0---0-0-0-0----o||
|-------------------------||


    Slightly Slower Q=164
    N.C.(E)
                               5/4
            ~~~~~~
    S S S S E +E  S S S S E E   S S S S E E  E Q   E E E  3x
||----------------------------|---------------------------||
||o---------------------------|--------------------------o||
||----------------------------|---------------------------||
||----------------------------|---------------------------||
||o---------7-(7)---------7-8-|---------7-8-10-8-----8-7-o||
||--0-0-0-0-------0-0-0-0-----|-0-0-0-0-----------10------||


                                                                                Fa
  (E)
 4/4                              5/4
  Gtr III
   W                                +H                 +H             +Q
|--------------------------------|----------------------------------------------||
|--------------------------------|----------------------------------------------||
|--------------------------------|----------------------------------------------||
|-14tr15-------------------------|-(14tr15)-----------(14tr15)-------(14tr15)---||
|--------------------------------|----------------------------------------------||
|--------------------------------|----------------------------------------------||
|
| Gtrs I, II
|              ~~~~~~
|  S     S S S E +E  S S S S E E     S      S S S E E   E      Q   E   E      E
|--------------------------------|----------------------------------------------||
|--------------------------------|----------------------------------------------||
|--------------------------------|----------------------------------------------||
|--------------------------------|----------------------------------------------||
|--------------7-(7)---------7-8-|----------------7-8--10------8-------8------7-||
|--0-----0-0-0-------0-0-0-0-----|---0------0-0-0-----------------10------------||


 Guitar Solo I
 ster Q=202
  B5
 4/4
                       |----3-----|
   E.    E.    E      +Q    Q     Q
|-19----19----19-----(19)--19----19------|
|-22b24-22b24-22b24==(22)r-22b24-22b24---|
|----------------------------------------|
|----------------------------------------|
|----------------------------------------|
|----------------------------------------|
|
|  W
|----------------------------------------|
|----------------------------------------|
|----------------------------------------|
|----------------------------------------|
|--9-------------------------------------|
|--7-------------------------------------|


  Bb5
   |-----3-----|     |-------3--------|
   Q     Q     Q     Q     E     +E   Q
|-19----19----19----19----19----(19)-19--|
|-22b24-22b24-22b24-22b24-22b24r(22)-----|
|----------------------------------------|
|----------------------------------------|
|----------------------------------------|
|----------------------------------------|
|
|  W
|----------------------------------------|
|----------------------------------------|
|----------------------------------------|
|----------------------------------------|
|--8-------------------------------------|
|--6-------------------------------------|


  E5                                                     F5
                |--3---|  |-----5-----|  |-----5-----|
   E      +E    E.  S  E  S  S  S  S  S  S  S  S  S  S    S  S  E  S  S  S  S  E  +E   Q
|-22b23==(22)r-22--21-19-22-22-21-19-24-21-19-22-21-19-|-24-21-19-22-22-21-19---------------|
|------------------------------------------------------|----------------------22-(22)s12/---|
|------------------------------------------------------|------------------------------------|
|------------------------------------------------------|------------------------------------|
|------------------------------------------------------|------------------------------------|
|------------------------------------------------------|------------------------------------|
|
|  W                                                      W
|------------------------------------------------------|------------------------------------|
|------------------------------------------------------|------------------------------------|
|------------------------------------------------------|------------------------------------|
|------------------------------------------------------|------------------------------------|
|--2---------------------------------------------------|--3---------------------------------|
|--0---------------------------------------------------|--1---------------------------------|


  B5
   S  S  S  S  S  S  S  S  S  S  S  S  S  S  S  S
|-18p15-------18p15-18p15-------18p15-18p15-------|
|-------18p15-------------18p15-------------18p15-|
|-------------------------------------------------|
|-------------------------------------------------|
|-------------------------------------------------|
|-------------------------------------------------|
|
|  W
|-------------------------------------------------|
|-------------------------------------------------|
|-------------------------------------------------|
|-------------------------------------------------|
|--9----------------------------------------------|
|--7----------------------------------------------|


  Bb5                                               E5
   S  S  S  S  S  S  S  S  S  S  S  S  S  S  S  S    S  E  S  S  E  S  S  S  S  S  S  S  S  S
|-18p15-18p15-------18p15-18p15-------18p15-18p15-|---------------------------------------------|
|-------------18p15-------------18p15-------------|-18p15-15-18p17-15-18p15---------------------|
|-------------------------------------------------|-------------------------17p15p14-17p15p14---|
|-------------------------------------------------|---------------------------------------------|
|-------------------------------------------------|---------------------------------------------|
|-------------------------------------------------|---------------------------------------------|
|
|  W                                                 W
|-------------------------------------------------|---------------------------------------------|
|-------------------------------------------------|---------------------------------------------|
|-------------------------------------------------|---------------------------------------------|
|-------------------------------------------------|---------------------------------------------|
|--8----------------------------------------------|--2------------------------------------------|
|--6----------------------------------------------|--0------------------------------------------|


  F5
   S  S  S  S  S  S  S  S  S  S  S  S  +E   E
|---------------------------------------------|
|---------------------------------------------|
|---------------------------------------------|
|-17p15p14-17p15p14---------------------------|
|-------------------15-13-12------------------|
|----------------------------15-13-12-(12)\---|
|
|  W
|---------------------------------------------|
|---------------------------------------------|
|---------------------------------------------|
|---------------------------------------------|
|--3------------------------------------------|
|--1------------------------------------------|


  B5                Bb5
   TP  TP  TP  TP    TP  TP  TP
   Q   Q   Q   Q     Q   Q   Q   E  +E
|-22--------------|----------------------|
|---------22--21--|----------------------|
|-----19----------|-22----------19-(19)\-|
|-----------------|-----19--21-----------|
|-----------------|----------------------|
|-----------------|----------------------|
|
|  W                 W
|-----------------|----------------------|
|-----------------|----------------------|
|-----------------|----------------------|
|-----------------|----------------------|
|--9--------------|--8-------------------|
|--7--------------|--6-------------------|


  E5                    F5                     B5
   |--3--|  |--3--|      |--3--|
   Q  Q  Q  Q  Q  Q      Q  Q  Q  Q   +Q       W
|---------------------|----------17--(17)\---|---------|
|----------------17---|-20-19-17-------------|---------|
|-20-17----17-20------|----------------------|-5tr7----|
|-------19------------|----------------------|---------|
|---------------------|----------------------|---------|
|---------------------|----------------------|---------|
|
|  W                     W                     W
|---------------------|----------------------|---------|
|---------------------|----------------------|---------|
|---------------------|----------------------|---------|
|---------------------|----------------------|---------|
|--2------------------|--3-------------------|-9-------|
|--0------------------|--1-------------------|-7-------|


                                                                Sl
  Bb5                   E5                F5
                         TP  TP  TP  TP    TP  TP
  H.        +S  S  E     Q   Q   Q   Q     Q   Q   Q      Q
|---------------------|-----------------|---------15-----17-----||
|---------------------|-------------15--|-17--18--18b20--20b22--||
|-5tr7------(5)h7s12\-|-14--15--17------|-----------------------||
|---------------------|-----------------|-----------------------||
|---------------------|-----------------|-----------------------||
|---------------------|-----------------|-----------------------||
|
| W                      W                 W
|---------------------|-----------------|-----------------------||
|---------------------|-----------------|-----------------------||
|---------------------|-----------------|-----------------------||
|---------------------|-----------------|-----------------------||
|-8-------------------|--2--------------|--3--------------------||
|-6-------------------|--0--------------|--1--------------------||


 Interlude
 ower Q=162
  E5
   >
   E      +E     Q        E      +E     Q
|-22b24==(22)r-----------22b24==(22)r-------------|
|-------------------------------------------------|
|-------------------------------------------------|
|-------------------------------------------------|
|-------------------------------------------------|
|-------------------------------------------------|
|
|          PM---------------------------------|
|  E       S   S S S S S  E       S   S S S S S
|-------------------------------------------------|
|-------------------------------------------------|
|-------------------------------------------------|
|--9----------------------------------------------|
|--7----------------------------------------------|
|--0-------0---0-0-0-0-0--0-------0---0-0-0-0-0---|


                E5 F5    E5                                            F5
  Gtrs I, II
  PM----------|            PM--------------------------------------|
  E S S S S S S Q   Q    E S S S S S S E S S S S S S   E S S S S S S E  E  Q
|----------------------|-----------------------------|-------------------------|
|----------------------|-----------------------------|-------------------------|
|----------------------|-----------------------------|-------------------------|
|---------------9--10--|-9---------------------------|---------------9s10-10---|
|---------------7---8--|-7---------------------------|---------------7s=8--8---|
|-0-0-0-0-0-0-0--------|-0-0-0-0-0-0-0-0-0-0-0-0-0-0-|-0-0-0-0-0-0-0-----------|


  E5
    PM-------------------------
  E S S S S S S E S S S S S S
|-----------------------------|
|-----------------------------|
|-----------------------------|
|-9---------------------------|
|-7---------------------------|
|-0-0-0-0-0-0-0-0-0-0-0-0-0-0-|


                   F5    E5
 -------------|            PM----------------------|
  E S S S S S S Q   Q    E S S S S S S E S S S S S S
|----------------------|-----------------------------|
|----------------------|-----------------------------|
|----------------------|-----------------------------|
|---------------9--10--|-9---------------------------|
|---------------7---8--|-7---------------------------|
|-0-0-0-0-0-0-0--------|-0-0-0-0-0-0-0-0-0-0-0-0-0-0-|


                  F5
  PM----------|
  E S S S S S S E  E  Q
|------------------------||
|------------------------||
|------------------------||
|---------------9s10-10--||
|---------------7s=8--8--||
|-0-0-0-0-0-0-0----------||


 Interlude Verse
  E5                                             F5
    PM--------------------------------------|
  E S S S S S S E S S S S S S   E S S S S S S Q   Q
|-----------------------------|-----------------------|
|-----------------------------|-----------------------|
|-----------------------------|-----------------------|
|-9---------------------------|---------------9--10---|
|-7---------------------------|---------------7---8---|
|-0-0-0-0-0-0-0-0-0-0-0-0-0-0-|-0-0-0-0-0-0-0---------|


  E5
    PM-------------------------
  E S S S S S S E S S S S S S
|-----------------------------|
|-----------------------------|
|-----------------------------|
|-9---------------------------|
|-7---------------------------|
|-0-0-0-0-0-0-0-0-0-0-0-0-0-0-|


                  F5       E5
 -------------|              PM----------------------|
  E S S S S S S E  E  Q    E S S S S S S E S S S S S S
|------------------------|-----------------------------|
|------------------------|-----------------------------|
|------------------------|-----------------------------|
|---------------9s10-10--|-9---------------------------|
|---------------7s=8--8--|-7---------------------------|
|-0-0-0-0-0-0-0----------|-0-0-0-0-0-0-0-0-0-0-0-0-0-0-|


                E5 F5    E5                                          F5
  PM----------|            PM--------------------------------------|
  E S S S S S S Q   Q    E S S S S S S E S S S S S S   E S S S S S S  H
|----------------------|-----------------------------|---------------------||
|----------------------|-----------------------------|---------------------||
|----------------------|-----------------------------|---------------------||
|---------------9--10--|-9---------------------------|---------------10----||
|---------------7---8--|-7---------------------------|----------------8----||
|-0-0-0-0-0-0-0--------|-0-0-0-0-0-0-0-0-0-0-0-0-0-0-|-0-0-0-0-0-0-0-------||


 Guitar Solo II
  Faster Q=180
  E5                                                  F5
  Gtr V
  TPTP  TP  TP  TP  TP  TP  TP    TPTP  TP  TPTP  TP   TPTP
  E E   E   E   E   E   E   E     E E   E   E E   E    E E
|-------------------------------|--------------------------|
|-------------------------------|--------------------------|
|-xsxs==xs==xs==xs==xs==xs==xs==|=xsxs==xs==xsxs==xs===xsxs|
|-xsxs==xs==xs==xs==xs==xs==xs==|=xsxs==xs==xsxs==xs===xsxs|
|-xsxs==xs==xs==xs==xs==xs==x---|--------------------------|
|-------------------------------|--------------------------|
|
| Gtrs I, II
| E S S S S S S S S S S S S S S   E S S S S E S S S S  Q
|-------------------------------|--------------------------|
|-------------------------------|--------------------------|
|-------------------------------|--------------------------|
|-9-----------------------------|-9---------9---------10---|
|-7-----------------------------|-7---------7----------8---|
|---0-0-0-0-0-0-0-0-0-0-0-0-0-0-|---0-0-0-0---0-0-0-0------|


  E5
  TPTP  TP  TP  TP  TP  TP  TP TP
  E E   E   E   E   E   E   S  S
|---------------------------------|
|---------------------------x\----|
|-xsxs==xs==xs==xs==xs==x---x\-x\-|
|-xsxs==xs==xs==xs==xs==x------x\-|
|---------------------------------|
|---------------------------------|
|
| E S S S S S S S S S S S S S  S
|---------------------------------|
|---------------------------------|
|---------------------------------|
|-9-------------------------------|
|-7-------------------------------|
|---0-0-0-0-0-0-0-0-0-0-0-0-0--0--|


  G5     Gb5    F5     E5
                       Gtr III
   TPTPTP TPTPTP TPTP
                                      |---3----|   |---3----|
   E E E  E E E  E E   E S S E   S  S E   E    E   E    E   E
|--------------------|------------------------------------------|
|--------------------|------------------------------------------|
|--xsxsxs=xsxsxs=xsx-|------------------------------------------|
|--xsxsxs=xsxsxs=xsx-|---5---5---7-/5-9---7\---5---7---10---7---|
|--xsxsxs=xsxsxs=xsx-|-7---7------------------------------------|
|--------------------|------------------------------------------|
|
|  Q.     Q.     Q     E S S S S S  S S S    S   S S S    S   S
|--------------------|------------------------------------------|
|--------------------|------------------------------------------|
|--------------------|------------------------------------------|
|-12-----11-----10---|-9----------------------------------------|
|-10------9------8---|-7----------------------------------------|
|--------------------|---0-0-0-0-0--0-0-0----0---0-0-0----0---0-|


                                              F5
   |----------7:8-----------| |----------7:8----------|
   S S    S   S    S   S    S S    S   S    S    S  S S
|---------------------------------------------------------|
|---------------------------------------------------------|
|----7---10---7---------------7---10---7--------------7---|
|-10--------------10---7---10--------------10----7-10-----|
|---------------------------------------------------------|
|---------------------------------------------------------|
|
|  E   S    S   S    S   E    S S    S   S     Q
|---------------------------------------------------------|
|---------------------------------------------------------|
|---------------------------------------------------------|
|--9---------------------9--------------------10----------|
|--7---------------------7---------------------8----------|
|------0----0---0----0--------0-0----0---0----------------|


  E5                                         G5      Gb5              F5
                                               \1/     \0.5/   \0.5/
  S S  S S  S S  S S  Q.            +E        +Q.     +E      +Q.        E
|------------------------------------------|-------------------------------|
|--------------------<5>-----------(<5>)---|-(<5>)---(<5>)---(<5>)---------|
|-8-7------10-7------<5>-----------(<5>)---|-(<5>)---(<5>)---(<5>)---------|
|-----10-7------10-7-----------------------|-----------------------------2-|
|------------------------------------------|-------------------------------|
|------------------------------------------|-------------------------------|
|
| E    S S  S S  S S  S  S S S S S   S   S     Q.      Q.              Q
|------------------------------------------|-------------------------------|
|------------------------------------------|-------------------------------|
|------------------------------------------|-------------------------------|
|-9----------------------------------------|--12------11--------------10---|
|-7----------------------------------------|--10-------9---------------8---|
|------0-0--0-0--0-0--0--0-0-0-0-0---0---0-|-------------------------------|


  E5
          |---3---|   |-3-|     |------6------|
  +Q      E   E   E   E   Q     S S   S S S   S
|-----------------------------------------------|
|-----------------------------------------------|
|-----------------------------------------------|
|-(2)-----2p==0h==2---3p==2---------------------|
|-------------------------------3p2p==0-3p2p==0-|
|-----------------------------------------------|
|
|  E  S S S S   S   S S S   S S S   S   S   S
|-----------------------------------------------|
|-----------------------------------------------|
|-----------------------------------------------|
|--9--------------------------------------------|
|--7--------------------------------------------|
|-----0-0-0-0---0---0-0-0---0-0-0---0---0---0---|


                             F5       E5
                 |---3---|    |-3-|   |3|     |---3---|
  Q.         S S E   E   E    E E E   E Q     E   E   E   S S S S S S S S
|-----------------------------------|--------------------------------------|
|-----------------------------------|--------------------------------------|
|-----------------------------------|-----------------------7-9p7h9p7h9p7--|
|-----------------------------------|-------------7---9---9----------------|
|----------------5------------7p5---|-9p7-----9----------------------------|
|-4----------5h7-----7p==5--------7-|--------------------------------------|
|
| E  S S S S E   S S   S   S  Q       E   S S S S   S   S S S S S S S S S
|-----------------------------------|--------------------------------------|
|-----------------------------------|--------------------------------------|
|-----------------------------------|--------------------------------------|
|-9----------9---------------10-----|-9------------------------------------|
|-7----------7----------------8-----|-7------------------------------------|
|----0-0-0-0-----0-0---0---0--------|-----0-0-0-0---0---0-0-0-0-0-0-0-0-0--|


  G5             Gb5        F5
       /3____________________| /2_____
                        ~~~~~~~~~~~~~~
                             |--3--|
   S S S   S S S  E S S S S  E E   E
|------------------------------------|
|------------------------------------|
|--9p7h9p==7h9p7h=9p7h9p7h9p=7h9p==7h|
|------------------------------------|
|------------------------------------|
|------------------------------------|
|
|  Q.             Q.         Q
|------------------------------------|
|------------------------------------|
|------------------------------------|
|-12-------------11---------10-------|
|-10--------------9----------8-------|
|------------------------------------|


  E5                                                                    F5
              |                     /1.5_____________________________________|
 ~~~~~~~~~~~~~~~~~~~~~~~~~~~~~~~~                  ~~~~~~~~~~~~~~~~~~~~~~~~~
          |---3---|   |---3---|
  S S E   E   E   E   E   E   E   a Q             +H.                   +E  +S    S
|-----------------------------------------------|------------------------------------|
|-----------------------------------------------|-------------------------------<12>-|
|-9p7h9p==7h==9p==7h==9p==7h==9p==7h9-----------|-(9)-------------------(9)-(9)-<12>-|
|-----------------------------------------------|-------------------------------<12>-|
|-----------------------------------------------|------------------------------------|
|-----------------------------------------------|------------------------------------|
|
| E   S S S S   S   S S S   S   S   S     S S S    E  S S S S E S S S S  Q
|-----------------------------------------------|------------------------------------|
|-----------------------------------------------|------------------------------------|
|-----------------------------------------------|------------------------------------|
|-9---------------------------------------------|--9----------9---------10-----------|
|-7---------------------------------------------|--7----------7----------8-----------|
|-----0-0-0-0---0---0-0-0---0---0---0-----0-0-0-|-----0-0-0-0---0-0-0-0--------------|


                                                                         Fa
  E5                                          G5      Gb5   F5
                                                                         Gt
                        \1.5__________________________________________|
    +H                 +H                      +H..             +S   +S
|-------------------------------------------|----------------------------||
|-(<12>)-------------(<12>)-----------------|-(12)-------------(12)-(12)-||
|-(<12>)-------------(<12>)-----------------|-(12)-------------(12)-(12)-||
|-(<12>)-------------(<12>)-----------------|-(12)-------------(12)-(12)-||
|-------------------------------------------|----------------------------||
|-------------------------------------------|----------------------------||
|
|    E   S S S S S S    S     S S S S S S S     Q.     Q.    Q
|-------------------------------------------|----------------------------||
|-------------------------------------------|----------------------------||
|-------------------------------------------|----------------------------||
|----9--------------------------------------|--12-----11----10-----------||
|----7--------------------------------------|--10------9-----8-----------||
|--------0-0-0-0-0-0----0-----0-0-0-0-0-0-0-|----------------------------||


 Guitar Solo III
 ster Q=202
  B5
 r IV
   S  S  S  S  S  S  S  S  S  a  S  S  S  S  S  S  S
|-----------------------------------------------------|
|-18-18-18-18-18-18-18-18-18-17h18-17-15-18-18-17-15--|
|-----------------------------------------------------|
|-----------------------------------------------------|
|-----------------------------------------------------|
|-----------------------------------------------------|
|
|  W
|-----------------------------------------------------|
|-----------------------------------------------------|
|-----------------------------------------------------|
|-----------------------------------------------------|
|--9--------------------------------------------------|
|--7--------------------------------------------------|


  Bb5
   S  S  S  S  S  S  S  S  S  S  S  S  Q
|------------------------------------------|
|-18-18-18-18-18-18-18-18-18-18-17-15-18\--|
|------------------------------------------|
|------------------------------------------|
|------------------------------------------|
|------------------------------------------|
|
|  W
|------------------------------------------|
|------------------------------------------|
|------------------------------------------|
|------------------------------------------|
|--8---------------------------------------|
|--6---------------------------------------|


  E5                                         F5
                                              |--3--|  |--3--|
   S  S  S  S  E      +Q    +E   +E   S  S    E  E  E  E  E  E  Q     E  E
|-------18-18-18b19==(18)--(18)r(18)-15-15-|-18p15-18p15-18p15----------17-|
|-17p15------------------------------------|-------------------17\--/19----|
|------------------------------------------|-------------------------------|
|------------------------------------------|-------------------------------|
|------------------------------------------|-------------------------------|
|------------------------------------------|-------------------------------|
|
|  W                                          W
|------------------------------------------|-------------------------------|
|------------------------------------------|-------------------------------|
|------------------------------------------|-------------------------------|
|------------------------------------------|-------------------------------|
|--2---------------------------------------|--3----------------------------|
|--0---------------------------------------|--1----------------------------|


  B5
   S  S  S  S  S  S  S  S  S  S  S  S  S  S  S  S
|-19-19-17-19-19-17-17-22-22-17-17-19-19-17-19-17-|
|-------------------------------------------------|
|-------------------------------------------------|
|-------------------------------------------------|
|-------------------------------------------------|
|-------------------------------------------------|
|
|  W
|-------------------------------------------------|
|-------------------------------------------------|
|-------------------------------------------------|
|-------------------------------------------------|
|--9----------------------------------------------|
|--7----------------------------------------------|


  Bb5
   |-----5-----|              |-----5-----|
   S  S  S  S  S  S  S  S  S  S  S  S  S  S  S  S  S  S
|-22-22-17-17-19-19-17-19-17-22-22-17-17-19-19-17-19-17-|
|-------------------------------------------------------|
|-------------------------------------------------------|
|-------------------------------------------------------|
|-------------------------------------------------------|
|-------------------------------------------------------|
|
|  W
|-------------------------------------------------------|
|-------------------------------------------------------|
|-------------------------------------------------------|
|-------------------------------------------------------|
|--8----------------------------------------------------|
|--6----------------------------------------------------|


  E5
   |-----5-----|  |-----5-----|
   S  S  S  S  S  S  S  S  S  S  S  S  S  S      +Q
|-22-22-17-17-17-19-17-22-17-17-22-22-22-22b24==(22)--|
|-----------------------------------------------------|
|-----------------------------------------------------|
|-----------------------------------------------------|
|-----------------------------------------------------|
|-----------------------------------------------------|
|
|  W
|-----------------------------------------------------|
|-----------------------------------------------------|
|-----------------------------------------------------|
|-----------------------------------------------------|
|--2--------------------------------------------------|
|--0--------------------------------------------------|


  F5
   +E   +E      +E   E      a       +Q.    +E
|-(22)r(22)b24-(22)-22b24r(22)b24==(22)---(22)r-||
|-----------------------------------------------||
|-----------------------------------------------||
|-----------------------------------------------||
|-----------------------------------------------||
|-----------------------------------------------||
|
|   W
|-----------------------------------------------||
|-----------------------------------------------||
|-----------------------------------------------||
|-----------------------------------------------||
|---3-------------------------------------------||
|---1-------------------------------------------||


  SlowlyH.=H40
  E5                             F5  E5    G5
  Gtrs I, II
  Q  Q  Q  Q    Q  Q  Q  Q    Q   Q  E +E   Q     +W
|-------------|-------------|------------------|---------|
|-------------|-------------|------------------|---------|
|-9--9--9--9--|-9--9--9--9--|-9--10--9-(9)S12--|-(12)----|
|-9--9--9--9--|-9--9--9--9--|-9--10--9-(9)S12--|-(12)----|
|-7--7--7--7--|-7--7--7--7--|-7---8--7-(7)S10--|-(10)----|
|-------------|-------------|------------------|---------|


                                  E5
   +W            +H.       +Q     Q  H.
|-------------|-----------------|----------*|
|-------------|-----------------|----------*|
|-(12)--------|-(12)------(12)S=|=9--------*|
|-(12)--------|-(12)------(12)S=|=9--------*|
|-(10)--------|-(10)------(10)S=|=7--------*|
|-------------|-----------------|----------*|



Duration Legend
---------------
W - whole; H - half; Q - quarter; E - 8th; S - 16th; T - 32nd; X - 64th; a - acciaccatura
+ - note tied to previous; . - note dotted; .. - note double dotted
Uncapitalized letters represent notes that are staccato (1/2 duration)
Irregular groupings are notated above the duration line
Duration letters will always appear directly above the note/fret number it represents the
duration for.  Duration letters with no fret number below them represent rests.  Multi-
bar rests are notated in the form Wxn, where n is the number of bars to rest for.  Low
melody durations appear below the staff

Tablature Legend
----------------
 h   - hammer-on
 p   - pull-off
 b   - bend
 pb  - pre-bend
 r   - bend release (if no number after the r, then release immediately)
 /\  - slide into or out of (from/to "nowhere")
 s   - legato slide
 S   - shift slide
 - natural harmonic
[n]  - artificial harmonic
n(n) - tapped harmonic
 ~   - vibrato
 tr  - trill
 T   - tap
 TP  - trem. picking
 PM  - palm muting
\n/  - tremolo bar dip; n = amount to dip
 \n  - tremolo bar down
 n/  - tremolo bar up
/n\  - tremolo bar inverted dip
 =   - hold bend; also acts as connecting device for hammers/pulls
 <> - volume swell (louder/softer)
 x   - on rhythm slash represents muted slash
 o   - on rhythm slash represents single note slash

Misc Legend
-----------
 |  - bar
||  - double bar
||o - repeat start
o|| - repeat end
*|  - double bar (ending)
 :  - bar (freetime)
 $  - Segno
 &  - Coda
Tempo markers -  = BPM(8/16=s8/s16), where s8 = swing 8ths, s16 = swing 16ths

Tap to rate this tab
 
# A B C D E F G H I J K L M N O P Q R S T U V W X Y Z