Song name
# A B C D E F G H I J K L M N O P Q R S T U V W X Y Z

Sleep For Sleepers - The Distance chords

Highlighted       Show chord diagrams
Hey here's my tab for The Distance by Sleep for Sleepers :)

Capo on 1

Standard tuning

Intro:


D Bm Em Bm

Guitar 2

e|--5-5--2--3-3--2-2-0-0-2-2----------|
B|------------------------------------|
G|------------------------------------|
D|------------------------------------|  x2
A|------------------------------------|
E|------------------------------------|

e|--5-5--2--3-3--2-2-0-0-2-2------------------------------3-3-2-----|
B|----------------------------2-2-3-3-5--2-2-3-3-5-5-3-3------------|
G|------------------------------------------------------------------|
D|------------------------------------------------------------------|
A|------------------------------------------------------------------|
E|------------------------------------------------------------------|



D                          Bm
For you are the sight of my eyes.
                              Em
For you breathe between every line. (Is this love?)
                                      Bm
The love it takes to give your heart away.
D                                         Bm
What defines my heart is what’s best for you.
                                 Em
Where tired eyes are willing to prove.
                    Bm
That I’ll be here forever.

Guitar 2

At your Bedside........
e|--------5--2-------------2--0----------5--2----------3--2--0-|
B|--2--3----------2--3--5----------2--3----------2--3----------|
G|-------------------------------------------------------------|
D|-------------------------------------------------------------| x2
A|-------------------------------------------------------------|
E|-------------------------------------------------------------|

e|--9--10--5---------------------|
B|-------------------------------|
G|-------------------------------|
D|-------------------------------|
A|-------------------------------|
E|-------------------------------|


Guitar 1
G
At your bedside.
A
Never leave my sight.
G                     A
If there’s distance, there’s persistence too…

      D                                      Bm
When our love is opening their eyes for the first time.
                              Em                  Bm
They’ll have your eyes like you’ve had mine. Whoa-oh.
   D                                        Bm
If my words can’t define the lights that compete with the voice of my eyes
              Em
when you’re gone.
              Bm
Then I’m far away!!!



At your bedside.
Never leave my sight.
If there’s distance, there’s persistence too…
I will stay until the sun, until the sun arrives.
Even then I’ll be by your side.
Tap to rate this tab
 
# A B C D E F G H I J K L M N O P Q R S T U V W X Y Z