Song name
# A B C D E F G H I J K L M N O P Q R S T U V W X Y Z

Sleep For Sleepers - The Distance tab

-------------------------------------------------------------------------------
                             The Clearing - Sleep For Sleepers
-------------------------------------------------------------------------------
Tabbed by: GiGi Hurtault & David Gates

Tuning: Standard(EADGBe)
Key: E
3/4 Time

-Chords-
Intro: E C#m F#m C#m
Chorus: A B C#m B
Bridge: A E B

(still figuring out the exact variations of each chord)


Intro/Chorus:
e|------------------------------------------------------------------------------------|
B|-11-----------------------11------------------11------------------------------11----|
G|----12---13-12-10-12--------12---13-12-10-12-----12---13-12-10-12---10-8-10-8---12--| 
D|------------------------------------------------------------------------------------|
A|------------------------------------------------------------------------------------|
E|------------------------------------------------------------------------------------|

Right before "At your beside":
e|-----------|
B|-15-16-----|
G|-------15--|
D|-----------|
A|-----------|
E|-----------|

At 3:40:
e|---------------------------------------------------------|
B|----------------------------11---------------------------|
G|-7-8-8-7-(repeat, then...)----12---13-12-10-12-(repeat)--| 
D|---------------------------------------------------------|
A|---------------------------------------------------------|
E|---------------------------------------------------------|

That's about it. There's an instrumental/solo part which I'll try to figure out exactly.
Enjoy, leave feedback!
Tap to rate this tab
# A B C D E F G H I J K L M N O P Q R S T U V W X Y Z