Song name
# A B C D E F G H I J K L M N O P Q R S T U V W X Y Z

Sleep Terror - Overture tab

Artist: Sleep Terror
Album: Probing Tranquility
Song: Overture
Track #1

I'm not sure what tuning it's in, but I was just fucking around on my guitar last night 
accidently figured out how to play this, so here ya go

e|----------|
B|-----7----|
G|---5---5--|
D|-4--------|
A|----------|
E|----------| X4

e|----------------------------------------8---|
B|-----7---------10---------9---------8-------|
G|---5---5-----8----8-----7---7-----6---6-----|
D|-4---------7----------6---------5-----------|
A|--------------------------------------------|
E|--------------------------------------------|

That's it. The intro anyway. Most Sleep Terror is way to crazy for me.
Tap to rate this tab
 
# A B C D E F G H I J K L M N O P Q R S T U V W X Y Z