Song name
# A B C D E F G H I J K L M N O P Q R S T U V W X Y Z

Sleeperstar - I Was Wrong tab

e|5---5---6---6---5---5---0---0---|
B|--6---6---6---6---6---6---6---6-|
G|--------------------------------|
D|--------------------------------|
A|--------------------------------|
E|--------------------------------|

{Below is the exact same}

e|5---5---6---6---5---5---0---0---|
B|--6---6---6---6---6---6---6---6-|
G|--------------------------------|
D|--------------------------------|
A|--------------------------------|
E|--------------------------------|


It repeats over and over again. [I added it twice because they require you submit an 
with 300 symbols or more]. 100% correct, you can play along with the song.
Tap to rate this tab
 
# A B C D E F G H I J K L M N O P Q R S T U V W X Y Z