Song name
# A B C D E F G H I J K L M N O P Q R S T U V W X Y Z

Slick Shoes - Remember tab

Artist: Slick Shoes
Title:Remember
Album: Slick Shoes

Tabbed by Sean Green     (the_bunglist@yahoo.com)


INTRO 

E ---------------------------------------------------------------------|
A -5--5-----------------------------------------------------5-pm-------|
D -------7--5--4--2--0--2-----------7--4-----4--2--4-x2-----7----------|
G -------------------------6--7--6--------2-----------------7----------|
B ---------------------------------------------------------------------|
e ---------------------------------------------------------------------|


VERSE

E -----5--7--3--5---3------5-------------------------------------------|
A --5--7--9--5--7---5---5--7-------------------------------------------|
D --7--7--9--5--7pm-5---7--7-------------------------------------------|
G --7-------------------7----------------------------------------------|
B ---------------------------------------------------------------------|
e ----------------------|--|-------------------------------------------|
           small delay on these two single hits listen for them!!


CHORUS
                                  "Could you ever see 
E ---------------------end with----2---------------3-----5-------------|
A --5--10--9--4--7-----------------5---------------5-----7-------------|
D ---------------------------------5---------------5-----7-------------|
G --7--12--11-6--9-----------------------------------------------------|
B ---------------------------------------------------------------------|
e -------------------------------------------------------|-------------|

AFTER THE FIRST CHORUS

E ---------------------------------------------------------------------|
A -5--5----------------------------------------------------------------|
D -------7--5--4--2--0--2--x1------------------------------------------|
G ---------------------------------------------------------------------|
B ---------------------------------------------------------------------|
e ---------------------------------------------------------------------|

OUTRO

E ---------------5--3----2nd guitar comes in---------------------------|
A --5--5--5--5---7--5------------------------12--10--9--x3---10--7-----|
D --7--7--7--7---7--5--------------------------------------------------|
G --7--6--7--6-------------------------------14--12-11-------12--9-----|
B ---------------------------------------------------------------------|
e --|--|--|--|---------------------------------------------------------|

(* | = single hit)
There Ya go!! Again, listen to the cd to get the rhythms for
the verse etc. It's not too hard just the usual fast punk style!
Hope this helps!!
Tap to rate this tab
# A B C D E F G H I J K L M N O P Q R S T U V W X Y Z