Guitaretab - guitar tabs
Song name
# A B C D E F G H I J K L M N O P Q R S T U V W X Y Z

Slipknot - Till We Die tab

Slipknot - Till We Die
Tab: Billybusa (me)
Tuning: Drop B

Intro:
C#||-------------------------|-----------------------||
G#||-------------------------|-----------------------||
E ||--4------8b--7--6--7--6--|--4--2----2/6\4--------||
B ||-------------------------|-----------------------|| x4
F#||-------------------------|-----------------------||
B ||-------------------------|-----------------------||

Chorus:
|--------------------------|------------------------|
|--------------------------|------------------------|
|--------------------------|------------------------|
|--7--------12--10--9--10--|--9--7--5----5--9--7----|
|--7--------12--10--9--10--|--9--7--5----5--9--7----|
|--7--------12--10--9--10--|--9--7--5----5--9--7----|
                                                       x2    
---------------------------------------||
---------------------------------------||
---------------------------------------||
--12--10--9--10--9--7--5----5--9--7----||
--12--10--9--10--9--7--5----5--9--7----||
--12--10--9--10--9--7--5----5--9--7----||

Verse: (If you listen closely youíll hear it)
------------------------------|------------------------------||
------------------------------|------------------------------||
--4--4-4-4-4--4-4-4-4--4-4-4--|--2--2-2-2-2--2-2-2-2--2-2-2--||
--4--4-4-4-4--4-4-4-4--4-4-4--|--2--2-2-2-2--2-2-2-2--2-2-2--|| x4
------------------------------|------------------------------||
------------------------------|------------------------------||

Chorus:
|--------------------------|------------------------|
|--------------------------|------------------------|
|--------------------------|------------------------|
|--7--------12--10--9--10--|--9--7--5----5--9--7----|
|--7--------12--10--9--10--|--9--7--5----5--9--7----|
|--7--------12--10--9--10--|--9--7--5----5--9--7----|
                                                       x2    
---------------------------------------||
---------------------------------------||
---------------------------------------||
--12--10--9--10--9--7--5----5--9--7----||
--12--10--9--10--9--7--5----5--9--7----||
--12--10--9--10--9--7--5----5--9--7----||

Verse: (If you listen closely youíll hear it)
------------------------------|------------------------------||
------------------------------|------------------------------||
--4--4-4-4-4--4-4-4-4--4-4-4--|--2--2-2-2-2--2-2-2-2--2-2-2--||
--4--4-4-4-4--4-4-4-4--4-4-4--|--2--2-2-2-2--2-2-2-2--2-2-2--|| x4
------------------------------|------------------------------||
------------------------------|------------------------------||
[ Tab from: http://www.guitaretab.com/s/slipknot/114610.html ]
----------------------------------|----------------------------------|
----------------------------------|----------------------------------|
----------------------------------|----------------------------------|
--14--14--14--14--14--14--14--14--|--14--14--14--14--14--14--14--14--|
----------------------------------|----------------------------------|
----------------------------------|----------------------------------|

----------------------------------|----------------------------------||
----------------------------------|----------------------------------||
--------------------------16--16--|--16------------------------------||
--14--14--14--14--14--14----------|------14--14--14--14--14--14--14--|| x2
----------------------------------|----------------------------------||
----------------------------------|----------------------------------||

Chorus:
|--------------------------|------------------------|
|--------------------------|------------------------|
|--------------------------|------------------------|
|--7--------12--10--9--10--|--9--7--5----5--9--7----|
|--7--------12--10--9--10--|--9--7--5----5--9--7----|
|--7--------12--10--9--10--|--9--7--5----5--9--7----|
                                                       x2    
---------------------------------------||
---------------------------------------||
---------------------------------------||
--12--10--9--10--9--7--5----5--9--7----||
--12--10--9--10--9--7--5----5--9--7----||
--12--10--9--10--9--7--5----5--9--7----||

Verse: (If you listen closely youíll hear it)
------------------------------|------------------------------||
------------------------------|------------------------------||
--4--4-4-4-4--4-4-4-4--4-4-4--|--2--2-2-2-2--2-2-2-2--2-2-2--||
--4--4-4-4-4--4-4-4-4--4-4-4--|--2--2-2-2-2--2-2-2-2--2-2-2--|| x4
------------------------------|------------------------------||
------------------------------|------------------------------||

Chorus:
|--------------------------|------------------------|
|--------------------------|------------------------|
|--------------------------|------------------------|
|--7--------12--10--9--10--|--9--7--5----5--9--7----|
|--7--------12--10--9--10--|--9--7--5----5--9--7----|
|--7--------12--10--9--10--|--9--7--5----5--9--7----|
                                                       x2    
---------------------------------------||
---------------------------------------||
---------------------------------------||
--12--10--9--10--9--7--5----5--9--7----||
--12--10--9--10--9--7--5----5--9--7----||
--12--10--9--10--9--7--5----5--9--7----||

Sorry no solo cause itís impossible to hear :/

Chorus:
|--------------------------|------------------------|
|--------------------------|------------------------|
|--------------------------|------------------------|
|--7--------12--10--9--10--|--9--7--5----5--9--7----|
|--7--------12--10--9--10--|--9--7--5----5--9--7----|
|--7--------12--10--9--10--|--9--7--5----5--9--7----|
                                                       Play until the end.  
---------------------------------------||
---------------------------------------||
---------------------------------------||
--12--10--9--10--9--7--5----5--9--7----||
--12--10--9--10--9--7--5----5--9--7----||
--12--10--9--10--9--7--5----5--9--7----||
Related for Till We Die tab