Song name
# A B C D E F G H I J K L M N O P Q R S T U V W X Y Z

Slipknot - Surfacing tab

slipknot
surfacing
tabbed by dieter oberholster


Drop D Tuning.

intro
----------------------------------------------------------------|
------------------------17^^---------------------17^------------|
--------0h2h3h2h3h2h3----------0h2h3h2h3h2h3--------------------|
----------------------------------------------------------------|
----------------------------------------------------------------|
---------------------------------------------------------Repeat-|


-----------------------------------------------------|
-----------------------------------------------------|
-----------------------------------------------------|
--0-0--0-1---0-0--0-1---0-0--0-1---0-0--0-1----------|
--0-0--0-1---0-0--0-1---0-0--0-1---0-0--0-1----------|
--0-0--0-1---0-0--0-1---0-0--0-1---0-0--0-1----------|


-------------------------------------------------------------|
-------------------------------------------------------------|
-------------------------------------------------------------|
--0-0-0--0-0-1---0-0-0--0-0-1---0-0-0--0-0-1---0-0-0--0-0-1--|
--0-0-0--0-0-1---0-0-0--0-0-1---0-0-0--0-0-1---0-0-0--0-0-1--|
--0-0-0--0-0-1---0-0-0--0-0-1---0-0-0--0-0-1---0-0-0--0-0-1--|


--17-19--17-19--17-19--17-19--|
------------------------------|
------------------------------|
------------------------------|
------------------------------|
------------------------------|


--19-17--19-17--19-17--|
-----------------------|
-----------------------|
-----------------------|
-----------------------|
-----------------------|

Chorus
----------------------------------------------------------------------------|
----------------------------------------------------------------------------|
----------------------------------------------------------------------------|
--0-0-0--0-0-1---0-0-0--0-0-1---0-0-0--0-0-1---0-0-0--0-0-1---0-0-0--0-0-1--|
--0-0-0--0-0-1---0-0-0--0-0-1---0-0-0--0-0-1---0-0-0--0-0-1---0-0-0--0-0-1--|
--0-0-0--0-0-1---0-0-0--0-0-1---0-0-0--0-0-1---0-0-0--0-0-1---0-0-0--0-0-1--|


Bridge
---------------------------------------------------|
---------------------------------------------------|
---------------------------------------------------|
---------------------------------------------------|
-----------7--6-----------------4--3---------------|
--8--7--6--------8--7--6--4--3--------4--3--2--1---|


---------------------------------------------------|
---------------------------------------------------|
---------------------------------------------------|
---------------------------------------------------|
-----------7--6-----------------4--3---------------|
--8--7--6--------8--7--6--4--3--------4--3--2--1---|

.......................P.M.........................

---------------------------------------------------|
---------------------------------------------------|
---------------------------------------------------|
1-0-1-0-6-5-0-2------------------------------------|
1-0-1-0-6-5-0-2------------------------------------|
1-0-1-0-6-5-0-2------------------------------------|


Outro:
-------------------------------------------------------------|
-------------------------------------------------------------|
-------------------------------------------------------------|
--0-0-0--0-0-1---0-0-0--0-0-1---0-0-0--0-0-1---0-0-0--0-0-1--|
--0-0-0--0-0-1---0-0-0--0-0-1---0-0-0--0-0-1---0-0-0--0-0-1--|
--0-0-0--0-0-1---0-0-0--0-0-1---0-0-0--0-0-1---0-0-0--0-0-1--|

keep it metal..
Tap to rate this tab
 
# A B C D E F G H I J K L M N O P Q R S T U V W X Y Z