Song name
# A B C D E F G H I J K L M N O P Q R S T U V W X Y Z

Slipknot - This Cold Black tab

Slipknot - This Cold Black
Tuning: Drop A
Tabbed by: Billybusa/skinlabd1989

Sorry, no solo yet.

B ||--------------------------|--------------------------|
F#||--------------------------|--------------------------|
D ||--------------------------|--------------------------|
A ||--0--0--1--0--3--0--0--1--|--0--0--0--3--0--0--3--4--|
E ||--------------------------|--------------------------|
A ||--------------------------|--------------------------|
     Pm----------------------------------------------->

--------------------------|--------------------------|
--------------------------|--------------------------|
--------------------------|--------------------------|
--0--0--1--0--3--0--0--1--|--0--0--0--3--0--0--3--4--|
--------------------------|--------------------------|
--------------------------|--------------------------|
Pm--------------------------------------------------->

--------------------------|--------------------------|
--------------------------|--------------------------|
--------------------------|--------------------------|
--0--0--1--0--3--0--0--1--|--0--0--0--3--0--0--3--4--|
--------------------------|--------------------------|
--------------------------|--------------------------|
Pm------------------------------------------------>

--------------------------|--------------------------|
--------------------------|--------------------------|
--------------------------|--------------------------|
--0--0--1--0--3--0--0--1--|--0--0--0--3--0--0--3--4--|
--------------------------|--------------------------|
--------------------------|--------------------------|
Pm------------------------------------------------->

|---------------------------|--------------------------|
|---------------------------|--------------------------|
|*--------------------------|--------------------------|
|*--0--0--1--0--3--0--0--1--|--0--0--0--3--0--0--3--4--|
|---------------------------|--------------------------|
|---------------------------|--------------------------|
Pm------------------------------------------------->

--------------------------|--------------------------|
--------------------------|--------------------------|
--------------------------|--------------------------|
--0--0--1--0--3--0--0--1--|--0--0--0--3--0--0--3--4--|
--------------------------|--------------------------|
--------------------------|--------------------------|
Pm------------------------------------------------>

--------------------------|--------------------------|
--------------------------|--------------------------|
--------------------------|--------------------------|
--0--0--1--0--3--0--0--1--|--0--0--0--3--0--0--3--4--|
--------------------------|--------------------------|
--------------------------|--------------------------|
Pm------------------------------------------------>

--------------------------|---------------------------||
--------------------------|---------------------------||
--------------------------|--------------------------*||
--0--0--1--0--3--0--0--1--|--0--0--0--3--0--0--3--4--*||
--------------------------|---------------------------||
--------------------------|---------------------------||
Pm------------------------------------------------>

--------------------|----------------------------|------------------------|
--------------------|----------------------------|------------------------|
*-------------------|----------------------------|------------------------|
*-------------------|----------------------------|------------------------|
-------1----3----0--|--------------3p--1---------|--------1----3-------0--|
-0--0--1----3-0--0--|-----0--3--5---------4p--1--|--0--0--1----3----0--0--|
 .  .         .                                     .  .            .

----------------------------|------------------------|
----------------------------|------------------------|
----------------------------|------------------------|
----------------------------|------------------------|
--------------3p--1---------|--------1----3-------0--|
-----0--3--5---------4p--1--|--0--0--1----3----0--0--|
                               .  .            .

----------------------------|------------------------|
----------------------------|------------------------|
----------------------------|------------------------|
----------------------------|------------------------|
--------------3p--1---------|--------1----3-------0--|
-----0--3--5---------4p--1--|--0--0--1----3----0--0--|
                               .  .            .

-----------------------------||----------------------------|
-----------------------------||----------------------------|
----------------------------*||*---------------------------|
----------------------------*||*---------------------------|
--------------3p--1----------||---------6p--5--------------|
-----0--3--5---------4p--1---||---0--0---------0--0--0--0--|
                                  .  .         Pm------>

----------------------------|---------------------------|
----------------------------|---------------------------|
----------------------------|---------------------------|
----------------------------|---------------------------|
-----8p--4------------5--4--|--------6p--5--------------|
--0---------8--7h--8--------|--0--0---------0--0--0--0--|
  .         .                  .  .         Pm------>

-----------------------------|---------------------------|
-----------------------------|---------------------------|
-----------------------------|---------------------------|
-----------------------------|---------------------------|
-----8p--4------------5p--4--|--------6p--5--------------|
--0---------8--7h--8---------|--0--0---------0--0--0--0--|
  .         .                   .  .         Pm------->

-----------------------------|---------------------------|
-----------------------------|---------------------------|
-----------------------------|---------------------------|
-----------------------------|---------------------------|
-----8p--4------------5p--4--|--------6p--5--------------|
--0---------8--7h--8---------|--0--0---------0--0--0--0--|
  .         .                   .  .         Pm------->

------------------------------||--------------------------|
------------------------------||--------------------------|
-----------------------------*||--------------------------|
-----------------------------*||--------------------------|
-----8p--4------------5p--4---||--0--0--1--0--3--0--0--1--|
--0---------8--7h--8----------||--0--0--1--0--3--0--0--1--|
  .         .                     Pm------------------>

--------------------------|--------------------------|
--------------------------|--------------------------|
--------------------------|--------------------------|
--------------------------|--------------------------|
--0--0--0--3--0--0--3--4--|--0--0--1--0--3--0--0--1--|
--0--0--0--3--0--0--3--4--|--0--0--1--0--3--0--0--1--|
Pm----------------------------------------------->

--------------------------|--------------------------|
--------------------------|--------------------------|
--------------------------|--------------------------|
--------------------------|--------------------------|
--0--0--0--3--0--0--3--4--|--0--0--1--0--3--0--0--1--|
--0--0--0--3--0--0--3--4--|--0--0--1--0--3--0--0--1--|
Pm------------------------------------------------>

--------------------------|--------------------------|
--------------------------|--------------------------|
--------------------------|--------------------------|
--------------------------|--------------------------|
--0--0--0--3--0--0--3--4--|--0--0--1--0--3--0--0--1--|
--0--0--0--3--0--0--3--4--|--0--0--1--0--3--0--0--1--|
Pm------------------------------------------------>

--------------------------|---------------------------|
--------------------------|---------------------------|
--------------------------|---------------------------|
--------------------------|---------------------------|
--0--0--0--3--0--0--3--4--|--------6p--5--------------|
--0--0--0--3--0--0--3--4--|--0--0---------------------|
 Pm----------------------------->

----------------------------|---------------------------|
----------------------------|---------------------------|
----------------------------|---------------------------|
----------------------------|---------------------------|
--------5p--4--------4p--3--|--------6p--5--------------|
-----0------------0---------|--0--0---------------------|
     .            .            .  .

----------------------------|---------------------------|
----------------------------|---------------------------|
----------------------------|---------------------------|
----------------------------|---------------------------|
--------5p--4--------4p--3--|--------6p--5--------------|
-----0------------0---------|--0--0---------------------|
     .            .            .  .

----------------------------|---------------------------|
----------------------------|---------------------------|
----------------------------|---------------------------|
----------------------------|---------------------------|
--------5p--4--------4p--3--|--------6p--5--------------|
-----0------------0---------|--0--0---------------------|
     .            .            .  .

----------------------------|---------------------------|
----------------------------|---------------------------|
----------------------------|---------------------------|
----------------------------|---------------------------|
--------5p--4--------4p--3--|--------6p--5--------------|
-----0------------0---------|--0--0---------0--0--0--0--|
     .            .            .  .         Pm------>

------------------------------|---------------------------|
------------------------------|---------------------------|
------------------------------|---------------------------|
------------------------------|---------------------------|
--------5p--4----------4p--3--|--------6p--5--------------|
--0--0---------(0)--0---------|--0--0---------0--0--0--0--|
  .  .          .   .            .  .         Pm------>

------------------------------|---------------------------|
------------------------------|---------------------------|
------------------------------|---------------------------|
------------------------------|---------------------------|
--------5p--4----------4p--3--|--------6p--5--------------|
--0--0---------(0)--0---------|--0--0---------0--0--0--0--|
  .  .          .   .            .  .         Pm------->

------------------------------|---------------------------|
------------------------------|---------------------------|
------------------------------|---------------------------|
------------------------------|---------------------------|
--------5p--4----------4p--3--|--------6p--5--------------|
--0--0---------(0)--0---------|--0--0---------0--0--0--0--|
  .  .          .   .            .  .         Pm------->

---------------------------|-----------------------|-----------------------|
---------------------------|-----------------------|-----------------------|
---------------------------|-----------------------|-----------------------|
---------------------------|--6----6-------6-------|--6----6-------6-------|
-----5p--4----------4p--3--|--5----5-------5-------|--5----5-------5-------|
--0--0------(0)--0---------|-----------0-------0---|------------0-------0--|
  .  .       .   .                     .       .                .       .

------------------------|-------------------------|-----------------------|
------------------------|-------------------------|-----------------------|
------------------------|-------------------------|-----------------------|
------------------------|-------------------------|--6----6-------6-------|
--3--3----3--5--5----5--|--6--6----6--1--1--------|--5----5-------5-------|
--3--3----3--5--5----5--|--6--6----6--1--1--------|------------0----------|
                                                               .

-----------------------|-----------------------|-----------------------|
-----------------------|-----------------------|-----------------------|
-----------------------|-----------------------|-----------------------|
--6----6-------6-------|-----------------------|-----------------------|
--5----5-------5-------|--2------2-------------|--3------3-------------|
------------0-------0--|--2------2----0--0--0--|--3------3----0--0--0--|
                                      .  .  .                 .  .  .

-----------------------|-----------------------|------------------------|
-----------------------|-----------------------|------------------------|
-----------------------|-----------------------|------------------------|
--6----6-------6-------|--6----6-------6-------|------------------------|
--5----5-------5-------|--5----5-------5-------|--3--3----3--5--5----5--|
------------0-------0--|------------0-------0--|--3--3----3--5--5----5--|
            .       .               .       .

-------------------------|-----------------------|-----------------------|
-------------------------|-----------------------|-----------------------|
-------------------------|-----------------------|-----------------------|
-------------------------|--6----6-------6-------|--6----6-------6-------|
--6--6----6--1--1--------|--5----5-------5-------|--5----5-------5-------|
--6--6----6--1--1--------|------------0----------|------------0-------0--|
                                      .

-----------------------|-----------------------|--------------------------|
-----------------------|-----------------------|--------------------------|
-----------------------|-----------------------|--------------------------|
-----------------------|-----------------------|--------------------------|
--2------2-------------|--5------5-------------|--0--0--1--0--3--0--0--1--|
--2------2----0--0--0--|--5------5----0--0--0--|--0--0--1--0--3--0--0--1--|
              .  .  .                 .  .  .     Pm----------------->

--------------------------|--------------------------|
--------------------------|--------------------------|
--------------------------|--------------------------|
--------------------------|--------------------------|
--0--0--0--3--0--0--3--4--|--0--0--1--0--3--0--0--1--|
--0--0--0--3--0--0--3--4--|--0--0--1--0--3--0--0--1--|
Pm------------------------------------------------->

--------------------------|--------------------------|
--------------------------|--------------------------|
--------------------------|--------------------------|
--------------------------|--------------------------|
--0--0--0--3--0--0--3--4--|--0--0--1--0--3--0--0--1--|
--0--0--0--3--0--0--3--4--|--0--0--1--0--3--0--0--1--|
Pm------------------------------------------------->

--------------------------|--------------------------|
--------------------------|--------------------------|
--------------------------|--------------------------|
--------------------------|--------------------------|
--0--0--0--3--0--0--3--4--|--0--0--1--0--3--0--0--1--|
--0--0--0--3--0--0--3--4--|--0--0--1--0--3--0--0--1--|
Pm------------------------------------------------->

--------------------------|------------------------|-------------------------|
--------------------------|------------------------|-------------------------|
--------------------------|------------------------|-------------------------|
--------------------------|------------------------|-------------------------|
--0--0--0--3--0--0--3--4--|--------1----3-------0--|-----------3-------3--4--|
--0--0--0--3--0--0--3--4--|--0--0--1----3----0--0--|-----0--0--3----0--3--4--|
Pm----------------------------->             .           .  .       .  

---------------------------|----------------------------|
---------------------------|----------------------------|
---------------------------|----------------------------|
---------------------------|----------------------------|
--------6p--5--------------|-----8p--4------------5--4--|
--0--0---------0--0--0--0--|--0---------8--7h--8--------|
  .  .         .  .  .  .     .         .

---------------------|-------------------------|---------------------------|
---------------------|-------------------------|---------------------------|
---------------------|-------------------------|---------------------------|
---------------------|-------------------------|---------------------------|
------1---3------0---|-----------3-------3--4--|--------6p--5--------------|
0--0--1---3---0--0---|-----0--0--3----0--3--4--|--0--0---------0--0--0--0--|
.  .          .            .  .       .           .  .         .  .  .  .

-------------------------|------------------------|-------------------------|
-------------------------|------------------------|-------------------------|
-------------------------|------------------------|-------------------------|
-------------------------|------------------------|-------------------------|
--8p--4------------5--4--|--------1----3-------0--|-----------3-------3--4--|
0--------8--7h--8--------|--0--0--1----3----0--0--|-----0--0--3----0--3--4--|
.        .                  .  .            .           .  .       .

---------------------------|----------------------------|
---------------------------|----------------------------|
---------------------------|----------------------------|
---------------------------|----------------------------|
--------6p--5--------------|-----8p--4------------5--4--|
--0--0---------0--0--0--0--|--0---------8--7h--8--------|
  .  .         .  .  .  .     .         .

----------------------|-------------------------|---------------------------|
----------------------|-------------------------|---------------------------|
----------------------|-------------------------|---------------------------|
----------------------|-------------------------|---------------------------|
------1----3-------0--|-----------3-------3--4--|--------6p--5--------------|
0--0--1----3----0--0--|-----0--0--3----0--3--4--|--0--0---------0--0--0--0--|
.  .            .           .  .       .           .  .         .  .  .  .

----------------------------|---------------------------|
----------------------------|---------------------------|
----------------------------|---------------------------|
----------------------------|---------------------------|
-----8p--4------------5--4--|--------6p--5--------------|
--0---------8--7h--8--------|--0--0---------0--0--0--0--|
  .         .                  .  .         .  .  .  .

----------------------------|---------------------------|
----------------------------|---------------------------|
----------------------------|---------------------------|
----------------------------|---------------------------|
-----8p--4------------5--4--|--------6p--5--------------|
--0---------8--7h--8--------|--0--0---------0--0--0--0--|
  .         .                  .  .         .  .  .  .

----------------------------|---------------------------|
----------------------------|---------------------------|
----------------------------|---------------------------|
----------------------------|---------------------------|
-----8p--4------------5--4--|--------6p--5--------------|
--0---------8--7h--8--------|--0--0---------0--0--0--0--|
  .         .                  .  .         .  .  .  .

----------------------------|-----------------------|-----------------------|
----------------------------|-----------------------|-----------------------|
----------------------------|-----------------------|-----------------------|
----------------------------|--6----6-------6-------|--6----6-------6-------|
-----8p--4------------5--4--|--5----5-------5-------|--5----5-------5-------|
--0---------8--7h--8--------|------------0-------0--|------------0-------0--|
  .         .                            .       .               .       .

------------------------|-------------------------|-----------------------|
------------------------|-------------------------|-----------------------|
------------------------|-------------------------|-----------------------|
------------------------|-------------------------|--6----6-------6-------|
--3--3----3--5--5----5--|--6--6----6--1--1--------|--5----5-------5-------|
--3--3----3--5--5----5--|--6--6----6--1--1--------|------------0----------|
                                                               .

-----------------------|-----------------------|-----------------------|
-----------------------|-----------------------|-----------------------|
-----------------------|-----------------------|-----------------------|
--6----6-------6-------|-----------------------|-----------------------|
--5----5-------5-------|--2------2-------------|--3------3-------------|
------------0-------0--|--2------2----0--0--0--|--3------3----0--0--0--|
                                      .  .  .                 .  .  .

-----------------------|-----------------------|------------------------|
-----------------------|-----------------------|------------------------|
-----------------------|-----------------------|------------------------|
--6----6-------6-------|--6----6-------6-------|------------------------|
--5----5-------5-------|--5----5-------5-------|--3--3----3--5--5----5--|
------------0-------0--|------------0-------0--|--3--3----3--5--5----5--|
            .       .               .       .

-------------------------|-----------------------|-----------------------|
-------------------------|-----------------------|-----------------------|
-------------------------|-----------------------|-----------------------|
-------------------------|--6----6-------6-------|--6----6-------6-------|
--6--6----6--1--1--------|--5----5-------5-------|--5----5-------5-------|
--6--6----6--1--1--------|------------0----------|------------0-------0--|
                                      .

-----------------------|-----------------------|--------------------------|
-----------------------|-----------------------|--------------------------|
-----------------------|-----------------------|--------------------------|
-----------------------|-----------------------|--------------------------|
--2------2-------------|--5------5-------------|--0--0--1--0--3--0--0--1--|
--2------2----0--0--0--|--5------5----0--0--0--|--0--0--1--0--3--0--0--1--|
              .  .  .                 .  .  .     Pm-------------------->

--------------------------|--------------------------|
--------------------------|--------------------------|
--------------------------|--------------------------|
--------------------------|--------------------------|
--0--0--0--3--0--0--3--4--|--0--0--1--0--3--0--0--1--|
--0--0--0--3--0--0--3--4--|--0--0--1--0--3--0--0--1--|
Pm------------------------------------------------->

--------------------------|--------------------------|
--------------------------|--------------------------|
--------------------------|--------------------------|
--------------------------|--------------------------|
--0--0--0--3--0--0--3--4--|--0--0--1--0--3--0--0--1--|
--0--0--0--3--0--0--3--4--|--0--0--1--0--3--0--0--1--|
Pm------------------------------------------------->

--------------------------|--------------------------|
--------------------------|--------------------------|
--------------------------|--------------------------|
--------------------------|--------------------------|
--0--0--0--3--0--0--3--4--|--0--0--1--0--3--0--0--1--|
--0--0--0--3--0--0--3--4--|--0--0--1--0--3--0--0--1--|
Pm------------------------------------------------->

--------------------------|-------------------------|-------------------------|
--------------------------|-------------------------|-------------------------|
--------------------------|-------------------------|-------------------------|
--------------------------|-------------------------|-------------------------|
--0--0--0--3--0--0--3--4--|--6----6--6--6--6--6--6--|--3----3--3--3--3--3--3--|
--0--0--0--3--0--0--3--4--|--6----6--6--6--6--6--6--|--3----3--3--3--3--3--3--|
Pm--------------------->         Pm--------------->          Pm------------>

--------------------------|--------------------------|-------------------------|
--------------------------|--------------------------|-------------------------|
--------------------------|--------------------------|-------------------------|
--------------------------|--------------------------|-------------------------|
--0--0--1--0--3--0--0--1--|--0--0--0--3--0--0--3--4--|--6----6--6--6--6--6--6--|
--0--0--1--0--3--0--0--1--|--0--0--0--3--0--0--3--4--|--6----6--6--6--6--6--6--|
Pm------------------------------------------------>          Pm------------->

-------------------------|--------------------------|--------------------------|
-------------------------|--------------------------|--------------------------|
-------------------------|--------------------------|--------------------------|
-------------------------|--------------------------|--------------------------|
--3----3--3--3--3--3--3--|--0--0--1--0--3--0--0--1--|--0--0--0--3--0--0--3--4--|
--3----3--3--3--3--3--3--|--0--0--1--0--3--0--0--1--|--0--0--0--3--0--0--3--4--|
       Pm------------------------------------------------------------------->

--------------------------|--------------------------|------------------------|
--------------------------|--------------------------|------------------------|
--------------------------|--------------------------|------------------------|
--------------------------|--------------------------|------------------------|
--0--0--1--0--3--0--0--1--|--0--0--0--3--0--0--3--4--|------------------------|
--0--0--1--0--3--0--0--1--|--0--0--0--3--0--0--3--4--|--3--3--2--2--6----5----|
Pm------------------------------------------------------------------------>

-------------------------|------------------------|-------------------------|
-------------------------|------------------------|-------------------------|
-------------------------|------------------------|-------------------------|
-------------------------|------------------------|-------------------------|
-------------------------|------------------------|-------------------------|
--0----2--2--3--3--2--2--|--3--3--2--2--6----5----|--0----2--2--3--3--2--2--|
Pm----------------------------------------------------------------------->

------------------------|-------------------------|--------------------------|
------------------------|-------------------------|--------------------------|
------------------------|-------------------------|--------------------------|
------------------------|-------------------------|--------------------------|
------------------------|-------------------------|--------------------------|
--3--3--2--2--6----5----|--0----2--2--3--3--2--2--|--3--3--2--2--6--6--5--5--|
Pm------------------------------------------------------------------------>

--------------------------|----------------------|----------------------|
--------------------------|----------------------|----------------------|
--------------------------|----------------------|----------------------|
--------------------------|----------------------|----------------------|
--------------------------|--3----2----6----5----|--0----2----3----2----|
--0--0--2--2--3--3--2--2--|--3----2----6----5----|--0----2----3----2----|
  Pm------------------->

----------------------|----------------------|----------------------|
----------------------|----------------------|----------------------|
----------------------|----------------------|----------------------|
----------------------|----------------------|----------------------|
--3----2----6----5----|--0----2----3----2----|--3----2----6----5----|
--3----2----6----5----|--0----2----3----2----|--3----2----6----5----|

----------------------|----------------------|----------------------|
----------------------|----------------------|----------------------|
----------------------|----------------------|----------------------|
----------------------|----------------------|----------------------|
--0----2----3----2----|--3----2----6----5----|--0----2----3----2----|
--0----2----3----2----|--3----2----6----5----|--0----2----3----2----|

-----------------------|-----------------------|------------------------|
-----------------------|-----------------------|------------------------|
-----------------------|-----------------------|------------------------|
--6----6-------6-------|--6----6-------6-------|------------------------|
--5----5-------5-------|--5----5-------5-------|--3--3----3--5--5----5--|
------------0-------0--|------------0-------0--|--3--3----3--5--5----5--|
            .       .               .       .

-------------------------|-----------------------|-----------------------|
-------------------------|-----------------------|-----------------------|
-------------------------|-----------------------|-----------------------|
-------------------------|--6----6-------6-------|--6----6-------6-------|
--6--6----6--1--1--------|--5----5-------5-------|--5----5-------5-------|
--6--6----6--1--1--------|------------0----------|------------0-------0--|
                                      .

-----------------------|-----------------------|-----------------------|
-----------------------|-----------------------|-----------------------|
-----------------------|-----------------------|-----------------------|
-----------------------|-----------------------|--6----6-------6-------|
--2------2-------------|--3------3-------------|--5----5-------5-------|
--2------2----0--0--0--|--3------3----0--0--0--|------------0-------0--|
              .  .  .                 .  .  .               .       .

-----------------------|------------------------|-------------------------|
-----------------------|------------------------|-------------------------|
-----------------------|------------------------|-------------------------|
--6----6-------6-------|------------------------|-------------------------|
--5----5-------5-------|--3--3----3--5--5----5--|--6--6----6--1--1--------|
------------0-------0--|--3--3----3--5--5----5--|--6--6----6--1--1--------|
            .       .

-----------------------|-----------------------|-----------------------|
-----------------------|-----------------------|-----------------------|
-----------------------|-----------------------|-----------------------|
--6----6-------6-------|--6----6-------6-------|-----------------------|
--5----5-------5-------|--5----5-------5-------|--2------2-------------|
------------0----------|------------0-------0--|--2------2----0--0--0--|
            .                                                 .  .  .

-----------------------|-----------------------|-----------------------|
-----------------------|-----------------------|-----------------------|
-----------------------|-----------------------|-----------------------|
-----------------------|--6----6-------6-------|--6----6-------6-------|
--5------5-------------|--5----5-------5-------|--5----5-------5-------|
--5------5----0--0--0--|------------0-------0--|------------0-------0--|
              .  .  .               .       .               .       .

------------------------|-------------------------|-----------------------|
------------------------|-------------------------|-----------------------|
------------------------|-------------------------|-----------------------|
------------------------|-------------------------|--6----6-------6-------|
--3--3----3--5--5----5--|--6--6----6--1--1--------|--5----5-------5-------|
--3--3----3--5--5----5--|--6--6----6--1--1--------|------------0----------|
                                                               .

-----------------------|-----------------------|-----------------------|
-----------------------|-----------------------|-----------------------|
-----------------------|-----------------------|-----------------------|
--6----6-------6-------|-----------------------|-----------------------|
--5----5-------5-------|--2------2-------------|--3------3-------------|
------------0-------0--|--2------2----0--0--0--|--3------3----0--0--0--|
                                      .  .  .                 .  .  .

-----------------------|-----------------------|------------------------|
-----------------------|-----------------------|------------------------|
-----------------------|-----------------------|------------------------|
--6----6-------6-------|--6----6-------6-------|------------------------|
--5----5-------5-------|--5----5-------5-------|--3--3----3--5--5----5--|
------------0-------0--|------------0-------0--|--3--3----3--5--5----5--|
            .       .               .       .

-------------------------|-----------------------|-----------------------|
-------------------------|-----------------------|-----------------------|
-------------------------|-----------------------|-----------------------|
-------------------------|--6----6-------6-------|--6----6-------6-------|
--6--6----6--1--1--------|--5----5-------5-------|--5----5-------5-------|
--6--6----6--1--1--------|------------0----------|------------0-------0--|
                                      .         

-----------------------|-----------------------|------------------------|
-----------------------|-----------------------|------------------------|
-----------------------|-----------------------|------------------------|
-----------------------|-----------------------|------------------------|
--2------2-------------|--5------5-------------|--------1----3-------0--|
--2------2----0--0--0--|--5------5----0--0--0--|--0--0--1----3----0--0--|
              .  .  .                 .  .  .     .  .            .

----------------------------|------------------------|
----------------------------|------------------------|
----------------------------|------------------------|
----------------------------|------------------------|
--------------3p--1---------|--------1----3-------0--|
-----0--3--5---------4p--1--|--0--0--1----3----0--0--|
                               .  .            .

----------------------------|------------------------|
----------------------------|------------------------|
----------------------------|------------------------|
----------------------------|------------------------|
--------------3p--1---------|--------1----3-------0--|
-----0--3--5---------4p--1--|--0--0--1----3----0--0--|
                               .  .            .

----------------------------|------------------------|
----------------------------|------------------------|
----------------------------|------------------------|
----------------------------|------------------------|
--------------3p--1---------|--------1----3-------0--|
-----0--3--5---------4p--1--|--0--0--1----3----0--0--|
                               .  .            .

----------------------------|------------------------|
----------------------------|------------------------|
----------------------------|------------------------|
----------------------------|------------------------|
--------------3p--1---------|--------1----3-------0--|
-----0--3--5---------4p--1--|--0--0--1----3----0--0--|
                               .  .            .

----------------------------|------------------------|
----------------------------|------------------------|
----------------------------|------------------------|
----------------------------|------------------------|
--------------3p--1---------|--------1----3-------0--|
-----0--3--5---------4p--1--|--0--0--1----3----0--0--|
                               .  .            .

----------------------------|------------------------|
----------------------------|------------------------|
----------------------------|------------------------|
----------------------------|------------------------|
--------------3p--1---------|--------1----3-------0--|
-----0--3--5---------4p--1--|--0--0--1----3----0--0--|
                               .  .            .

----------------------------|------------------------|
----------------------------|------------------------|
----------------------------|------------------------|
----------------------------|------------------------|
--------------3p--1---------|--------1----3-------0--|
-----0--3--5---------4p--1--|--0--0--1----3----0--0--|
                               .  .            .

----------------------------||
----------------------------||
----------------------------||
----------------------------||
--------------3p--1---------||
-----0--3--5---------4p--1--||
Tap to rate this tab
# A B C D E F G H I J K L M N O P Q R S T U V W X Y Z